  0
SECTION
  2
HEADER
  9
$ACADVER
  1
AC1015
  9
$ACADMAINTVER
 70
    18
  9
$DWGCODEPAGE
  3
ANSI_1252
  9
$INSBASE
 10
0.0
 20
0.0
 30
0.0
  9
$EXTMIN
 10
1.000000000000000E+20
 20
1.000000000000000E+20
 30
1.000000000000000E+20
  9
$EXTMAX
 10
-1.000000000000000E+20
 20
-1.000000000000000E+20
 30
-1.000000000000000E+20
  9
$LIMMIN
 10
0.0
 20
0.0
  9
$LIMMAX
 10
12.0
 20
9.0
  9
$ORTHOMODE
 70
     0
  9
$REGENMODE
 70
     1
  9
$FILLMODE
 70
     1
  9
$QTEXTMODE
 70
     0
  9
$MIRRTEXT
 70
     0
  9
$LTSCALE
 40
1.0
  9
$ATTMODE
 70
     1
  9
$TEXTSIZE
 40
0.2
  9
$TRACEWID
 40
0.05
  9
$TEXTSTYLE
  7
Standard
  9
$CLAYER
  8
0
  9
$CELTYPE
  6
ByLayer
  9
$CECOLOR
 62
   256
  9
$CELTSCALE
 40
1.0
  9
$DISPSILH
 70
     0
  9
$DIMSCALE
 40
1.0
  9
$DIMASZ
 40
0.18
  9
$DIMEXO
 40
0.0625
  9
$DIMDLI
 40
0.38
  9
$DIMRND
 40
0.0
  9
$DIMDLE
 40
0.0
  9
$DIMEXE
 40
0.18
  9
$DIMTP
 40
0.0
  9
$DIMTM
 40
0.0
  9
$DIMTXT
 40
0.18
  9
$DIMCEN
 40
0.09
  9
$DIMTSZ
 40
0.0
  9
$DIMTOL
 70
     0
  9
$DIMLIM
 70
     0
  9
$DIMTIH
 70
     1
  9
$DIMTOH
 70
     1
  9
$DIMSE1
 70
     0
  9
$DIMSE2
 70
     0
  9
$DIMTAD
 70
     0
  9
$DIMZIN
 70
     0
  9
$DIMBLK
  1

  9
$DIMASO
 70
     1
  9
$DIMSHO
 70
     1
  9
$DIMPOST
  1

  9
$DIMAPOST
  1

  9
$DIMALT
 70
     0
  9
$DIMALTD
 70
     2
  9
$DIMALTF
 40
25.4
  9
$DIMLFAC
 40
1.0
  9
$DIMTOFL
 70
     0
  9
$DIMTVP
 40
0.0
  9
$DIMTIX
 70
     0
  9
$DIMSOXD
 70
     0
  9
$DIMSAH
 70
     0
  9
$DIMBLK1
  1

  9
$DIMBLK2
  1

  9
$DIMSTYLE
  2
Standard
  9
$DIMCLRD
 70
     0
  9
$DIMCLRE
 70
     0
  9
$DIMCLRT
 70
     0
  9
$DIMTFAC
 40
1.0
  9
$DIMGAP
 40
0.09
  9
$DIMJUST
 70
     0
  9
$DIMSD1
 70
     0
  9
$DIMSD2
 70
     0
  9
$DIMTOLJ
 70
     1
  9
$DIMTZIN
 70
     0
  9
$DIMALTZ
 70
     0
  9
$DIMALTTZ
 70
     0
  9
$DIMUPT
 70
     0
  9
$DIMDEC
 70
     4
  9
$DIMTDEC
 70
     4
  9
$DIMALTU
 70
     2
  9
$DIMALTTD
 70
     2
  9
$DIMTXSTY
  7
Standard
  9
$DIMAUNIT
 70
     0
  9
$DIMADEC
 70
     0
  9
$DIMALTRND
 40
0.0
  9
$DIMAZIN
 70
     0
  9
$DIMDSEP
 70
    46
  9
$DIMATFIT
 70
     3
  9
$DIMFRAC
 70
     0
  9
$DIMLDRBLK
  1

  9
$DIMLUNIT
 70
     2
  9
$DIMLWD
 70
    -2
  9
$DIMLWE
 70
    -2
  9
$DIMTMOVE
 70
     0
  9
$LUNITS
 70
     2
  9
$LUPREC
 70
     4
  9
$SKETCHINC
 40
0.1
  9
$FILLETRAD
 40
0.0
  9
$AUNITS
 70
     0
  9
$AUPREC
 70
     0
  9
$MENU
  1
.
  9
$ELEVATION
 40
0.0
  9
$PELEVATION
 40
0.0
  9
$THICKNESS
 40
0.0
  9
$LIMCHECK
 70
     0
  9
$CHAMFERA
 40
0.0
  9
$CHAMFERB
 40
0.0
  9
$CHAMFERC
 40
0.0
  9
$CHAMFERD
 40
0.0
  9
$SKPOLY
 70
     0
  9
$TDCREATE
 40
2459497.602986111
  9
$TDUCREATE
 40
2459497.061319444
  9
$TDUPDATE
 40
2459497.602986111
  9
$TDUUPDATE
 40
2459497.061319444
  9
$TDINDWG
 40
0.0000000000
  9
$TDUSRTIMER
 40
0.0000000000
  9
$USRTIMER
 70
     1
  9
$ANGBASE
 50
0.0
  9
$ANGDIR
 70
     0
  9
$PDMODE
 70
     0
  9
$PDSIZE
 40
0.0
  9
$PLINEWID
 40
0.0
  9
$SPLFRAME
 70
     0
  9
$SPLINETYPE
 70
     6
  9
$SPLINESEGS
 70
     8
  9
$HANDSEED
  5
403
  9
$SURFTAB1
 70
     6
  9
$SURFTAB2
 70
     6
  9
$SURFTYPE
 70
     6
  9
$SURFU
 70
     6
  9
$SURFV
 70
     6
  9
$UCSBASE
  2

  9
$UCSNAME
  2

  9
$UCSORG
 10
0.0
 20
0.0
 30
0.0
  9
$UCSXDIR
 10
1.0
 20
0.0
 30
0.0
  9
$UCSYDIR
 10
0.0
 20
1.0
 30
0.0
  9
$UCSORTHOREF
  2

  9
$UCSORTHOVIEW
 70
     0
  9
$UCSORGTOP
 10
0.0
 20
0.0
 30
0.0
  9
$UCSORGBOTTOM
 10
0.0
 20
0.0
 30
0.0
  9
$UCSORGLEFT
 10
0.0
 20
0.0
 30
0.0
  9
$UCSORGRIGHT
 10
0.0
 20
0.0
 30
0.0
  9
$UCSORGFRONT
 10
0.0
 20
0.0
 30
0.0
  9
$UCSORGBACK
 10
0.0
 20
0.0
 30
0.0
  9
$PUCSBASE
  2

  9
$PUCSNAME
  2

  9
$PUCSORG
 10
0.0
 20
0.0
 30
0.0
  9
$PUCSXDIR
 10
1.0
 20
0.0
 30
0.0
  9
$PUCSYDIR
 10
0.0
 20
1.0
 30
0.0
  9
$PUCSORTHOREF
  2

  9
$PUCSORTHOVIEW
 70
     0
  9
$PUCSORGTOP
 10
0.0
 20
0.0
 30
0.0
  9
$PUCSORGBOTTOM
 10
0.0
 20
0.0
 30
0.0
  9
$PUCSORGLEFT
 10
0.0
 20
0.0
 30
0.0
  9
$PUCSORGRIGHT
 10
0.0
 20
0.0
 30
0.0
  9
$PUCSORGFRONT
 10
0.0
 20
0.0
 30
0.0
  9
$PUCSORGBACK
 10
0.0
 20
0.0
 30
0.0
  9
$USERI1
 70
     0
  9
$USERI2
 70
     0
  9
$USERI3
 70
     0
  9
$USERI4
 70
     0
  9
$USERI5
 70
     0
  9
$USERR1
 40
0.0
  9
$USERR2
 40
0.0
  9
$USERR3
 40
0.0
  9
$USERR4
 40
0.0
  9
$USERR5
 40
0.0
  9
$WORLDVIEW
 70
     1
  9
$SHADEDGE
 70
     3
  9
$SHADEDIF
 70
    70
  9
$TILEMODE
 70
     1
  9
$MAXACTVP
 70
    64
  9
$PINSBASE
 10
0.0
 20
0.0
 30
0.0
  9
$PLIMCHECK
 70
     0
  9
$PEXTMIN
 10
1.000000000000000E+20
 20
1.000000000000000E+20
 30
1.000000000000000E+20
  9
$PEXTMAX
 10
-1.000000000000000E+20
 20
-1.000000000000000E+20
 30
-1.000000000000000E+20
  9
$PLIMMIN
 10
0.0
 20
0.0
  9
$PLIMMAX
 10
12.0
 20
9.0
  9
$UNITMODE
 70
     0
  9
$VISRETAIN
 70
     1
  9
$PLINEGEN
 70
     0
  9
$PSLTSCALE
 70
     1
  9
$TREEDEPTH
 70
  3020
  9
$CMLSTYLE
  2
Standard
  9
$CMLJUST
 70
     0
  9
$CMLSCALE
 40
1.0
  9
$PROXYGRAPHICS
 70
     1
  9
$MEASUREMENT
 70
     0
  9
$CELWEIGHT
370
    -1
  9
$ENDCAPS
280
     0
  9
$JOINSTYLE
280
     0
  9
$LWDISPLAY
290
     1
  9
$INSUNITS
 70
     4
  9
$HYPERLINKBASE
  1

  9
$STYLESHEET
  1

  9
$XEDIT
290
     1
  9
$CEPSNTYPE
380
     0
  9
$PSTYLEMODE
290
     1
  9
$FINGERPRINTGUID
  2
{0C120E75-E2AB-714E-B6AB-433E324D3676}
  9
$VERSIONGUID
  2
{CD190725-3428-7E46-8B07-F0E8B3C7491F}
  9
$EXTNAMES
290
     1
  9
$PSVPSCALE
 40
0.0
  9
$OLESTARTUP
290
     0
  0
ENDSEC
  0
SECTION
  2
CLASSES
  0
CLASS
  1
ACDBDICTIONARYWDFLT
  2
AcDbDictionaryWithDefault
  3
ObjectDBX Classes
 90
        0
280
     0
281
     0
  0
CLASS
  1
MATERIAL
  2
AcDbMaterial
  3
ObjectDBX Classes
 90
     1153
280
     0
281
     0
  0
CLASS
  1
VISUALSTYLE
  2
AcDbVisualStyle
  3
ObjectDBX Classes
 90
     4095
280
     0
281
     0
  0
CLASS
  1
SCALE
  2
AcDbScale
  3
ObjectDBX Classes
 90
     1153
280
     0
281
     0
  0
CLASS
  1
TABLESTYLE
  2
AcDbTableStyle
  3
ObjectDBX Classes
 90
     4095
280
     0
281
     0
  0
CLASS
  1
MLEADERSTYLE
  2
AcDbMLeaderStyle
  3
ACDB_MLEADERSTYLE_CLASS
 90
     4095
280
     0
281
     0
  0
CLASS
  1
ACDBSECTIONVIEWSTYLE
  2
AcDbSectionViewStyle
  3
ObjectDBX Classes
 90
     1025
280
     0
281
     0
  0
CLASS
  1
ACDBDETAILVIEWSTYLE
  2
AcDbDetailViewStyle
  3
ObjectDBX Classes
 90
     1025
280
     0
281
     0
  0
CLASS
  1
DICTIONARYVAR
  2
AcDbDictionaryVar
  3
ObjectDBX Classes
 90
        0
280
     0
281
     0
  0
CLASS
  1
CELLSTYLEMAP
  2
AcDbCellStyleMap
  3
ObjectDBX Classes
 90
     1152
280
     0
281
     0
  0
CLASS
  1
ACDBPLACEHOLDER
  2
AcDbPlaceHolder
  3
ObjectDBX Classes
 90
        0
280
     0
281
     0
  0
CLASS
  1
LAYOUT
  2
AcDbLayout
  3
ObjectDBX Classes
 90
        0
280
     0
281
     0
  0
ENDSEC
  0
SECTION
  2
TABLES
  0
TABLE
  2
VPORT
  5
8
330
0
100
AcDbSymbolTable
 70
     1
  0
VPORT
  5
57
330
8
100
AcDbSymbolTableRecord
100
AcDbViewportTableRecord
  2
*Active
 70
     0
 10
0.0
 20
0.0
 11
1.0
 21
1.0
 12
0.0
 22
0.0
 13
0.0
 23
0.0
 14
1.0
 24
1.0
 15
0.0
 25
0.0
 16
0.0
 26
0.0
 36
1.0
 17
144.3711177684594
 27
123.2788319638252
 37
0.0
 40
107.4167529851945
 41
1.55176171449327
 42
50.0
 43
0.0
 44
0.0
 50
0.0
 51
0.0
 71
     0
 72
   100
 73
     1
 74
     0
 75
     1
 76
     0
 77
     0
 78
     0
281
     0
 65
     1
110
0.0
120
0.0
130
0.0
111
1.0
121
0.0
131
0.0
112
0.0
122
1.0
132
0.0
 79
     0
146
0.0
  0
ENDTAB
  0
TABLE
  2
LTYPE
  5
5
330
0
100
AcDbSymbolTable
 70
     1
  0
LTYPE
  5
5B
330
5
100
AcDbSymbolTableRecord
100
AcDbLinetypeTableRecord
  2
ByBlock
 70
     0
  3

 72
    65
 73
     0
 40
0.0
  0
LTYPE
  5
5C
330
5
100
AcDbSymbolTableRecord
100
AcDbLinetypeTableRecord
  2
ByLayer
 70
     0
  3

 72
    65
 73
     0
 40
0.0
  0
LTYPE
  5
5D
330
5
100
AcDbSymbolTableRecord
100
AcDbLinetypeTableRecord
  2
Continuous
 70
     0
  3
Solid line
 72
    65
 73
     0
 40
0.0
  0
ENDTAB
  0
TABLE
  2
LAYER
  5
2
330
0
100
AcDbSymbolTable
 70
     2
  0
LAYER
  5
54
330
2
100
AcDbSymbolTableRecord
100
AcDbLayerTableRecord
  2
0
 70
     0
 62
     7
  6
Continuous
370
    -3
390
F
  0
LAYER
  5
78
330
2
100
AcDbSymbolTableRecord
100
AcDbLayerTableRecord
  2
Layer 1
 70
     0
 62
     7
  6
Continuous
370
     0
390
F
  0
ENDTAB
  0
TABLE
  2
STYLE
  5
3
330
0
100
AcDbSymbolTable
 70
     2
  0
STYLE
  5
55
330
3
100
AcDbSymbolTableRecord
100
AcDbTextStyleTableRecord
  2
Standard
 70
     0
 40
0.0
 41
1.0
 50
0.0
 71
     0
 42
0.2
  3
txt
  4

  0
STYLE
  5
5A
330
3
100
AcDbSymbolTableRecord
100
AcDbTextStyleTableRecord
  2
Annotative
 70
     0
 40
0.0
 41
1.0
 50
0.0
 71
     0
 42
0.2
  3
txt
  4

1001
AcadAnnotative
1000
AnnotativeData
1002
{
1070
     1
1070
     1
1002
}
  0
ENDTAB
  0
TABLE
  2
VIEW
  5
6
330
0
100
AcDbSymbolTable
 70
     0
  0
ENDTAB
  0
TABLE
  2
UCS
  5
7
330
0
100
AcDbSymbolTable
 70
     0
  0
ENDTAB
  0
TABLE
  2
APPID
  5
9
330
0
100
AcDbSymbolTable
 70
     3
  0
APPID
  5
56
330
9
100
AcDbSymbolTableRecord
100
AcDbRegAppTableRecord
  2
ACAD
 70
     0
  0
APPID
  5
5E
330
9
100
AcDbSymbolTableRecord
100
AcDbRegAppTableRecord
  2
AcadAnnotative
 70
     0
  0
APPID
  5
3F6
330
9
100
AcDbSymbolTableRecord
100
AcDbRegAppTableRecord
  2
ACAD_MLEADERVER
 70
     0
  0
ENDTAB
  0
TABLE
  2
DIMSTYLE
  5
A
330
0
100
AcDbSymbolTable
 70
     2
100
AcDbDimStyleTable
 71
     0
  0
DIMSTYLE
105
58
330
A
100
AcDbSymbolTableRecord
100
AcDbDimStyleTableRecord
  2
Standard
 70
     0
340
55
  0
DIMSTYLE
105
59
330
A
100
AcDbSymbolTableRecord
100
AcDbDimStyleTableRecord
  2
Annotative
 70
     0
340
55
1001
AcadAnnotative
1000
AnnotativeData
1002
{
1070
     1
1070
     1
1002
}
  0
ENDTAB
  0
TABLE
  2
BLOCK_RECORD
  5
1
330
0
100
AcDbSymbolTable
 70
     2
  0
BLOCK_RECORD
  5
70
330
1
100
AcDbSymbolTableRecord
100
AcDbBlockTableRecord
  2
*Model_Space
340
73
  0
BLOCK_RECORD
  5
6C
330
1
100
AcDbSymbolTableRecord
100
AcDbBlockTableRecord
  2
*Paper_Space
340
6F
  0
BLOCK_RECORD
  5
74
330
1
100
AcDbSymbolTableRecord
100
AcDbBlockTableRecord
  2
*Paper_Space0
340
77
  0
BLOCK_RECORD
  5
391
330
1
100
AcDbSymbolTableRecord
100
AcDbBlockTableRecord
  2
Block_0
340
0
102
{BLKREFS
331
392
102
}
  0
ENDTAB
  0
ENDSEC
  0
SECTION
  2
BLOCKS
  0
BLOCK
  5
71
330
70
100
AcDbEntity
  8
0
100
AcDbBlockBegin
  2
*Model_Space
 70
     0
 10
0.0
 20
0.0
 30
0.0
  3
*Model_Space
  1

  0
ENDBLK
  5
72
330
70
100
AcDbEntity
  8
0
100
AcDbBlockEnd
  0
BLOCK
  5
6D
330
6C
100
AcDbEntity
 67
     1
  8
0
100
AcDbBlockBegin
  2
*Paper_Space
 70
     0
 10
0.0
 20
0.0
 30
0.0
  3
*Paper_Space
  1

  0
ENDBLK
  5
6E
330
6C
100
AcDbEntity
 67
     1
  8
0
100
AcDbBlockEnd
  0
BLOCK
  5
75
330
74
100
AcDbEntity
 67
     1
  8
0
100
AcDbBlockBegin
  2
*Paper_Space0
 70
     0
 10
0.0
 20
0.0
 30
0.0
  3
*Paper_Space0
  1

  0
ENDBLK
  5
76
330
74
100
AcDbEntity
 67
     1
  8
0
100
AcDbBlockEnd
  0
BLOCK
  5
393
330
391
100
AcDbEntity
  8
0
100
AcDbBlockBegin
  2
Block_0
 70
     0
 10
0.0
 20
0.0
 30
0.0
  3
Block_0
  1

  0
LWPOLYLINE
  5
395
330
391
100
AcDbEntity
  8
Layer 1
100
AcDbPolyline
 90
        3
 70
     1
 43
0.0
 10
152.9683377605078
 20
121.184136671788
 10
153.2700495139386
 20
121.5128197452793
 10
152.147217942215
 20
122.3065632018433
  0
HATCH
  5
396
330
391
100
AcDbEntity
  8
Layer 1
 62
   250
100
AcDbHatch
 10
0.0
 20
0.0
 30
0.0
210
0.0
220
0.0
230
1.0
  2
SOLID
 70
     1
 71
     1
 91
        1
 92
        1
 93
        3
 72
     1
 10
152.9683377605078
 20
121.184136671788
 11
153.2700495139386
 21
121.5128197452793
 72
     1
 10
153.2700495139386
 20
121.5128197452793
 11
152.147217942215
 21
122.3065632018433
 72
     1
 10
152.147217942215
 20
122.3065632018433
 11
152.9683377605078
 21
121.184136671788
 97
        1
330
395
 75
     2
 76
     1
 98
        1
 10
0.0
 20
0.0
  0
LWPOLYLINE
  5
397
330
391
100
AcDbEntity
  8
Layer 1
 62
   250
370
     9
100
AcDbPolyline
 90
        3
 70
     1
 43
0.0
 10
152.9683377605078
 20
121.184136671788
 10
153.2700495139386
 20
121.5128197452793
 10
152.147217942215
 20
122.3065632018433
  0
ENDBLK
  5
394
330
391
100
AcDbEntity
  8
0
100
AcDbBlockEnd
  0
ENDSEC
  0
SECTION
  2
ENTITIES
  0
LINE
  5
79
330
70
100
AcDbEntity
  8
Layer 1
 62
   250
370
     9
100
AcDbLine
 10
162.0182373185135
 20
113.5913701883614
 30
0.0
 11
162.0182373185135
 21
167.9547651470991
 31
0.0
  0
LINE
  5
7A
330
70
100
AcDbEntity
  8
Layer 1
 62
   250
370
     9
100
AcDbLine
 10
162.6755973991879
 20
113.5913701883614
 30
0.0
 11
162.6755973991879
 21
167.9547651470991
 31
0.0
  0
LINE
  5
7B
330
70
100
AcDbEntity
  8
Layer 1
 62
   250
370
     9
100
AcDbLine
 10
163.3051839564254
 20
113.5913701883614
 30
0.0
 11
163.3051839564254
 21
167.9547651470991
 31
0.0
  0
LINE
  5
7C
330
70
100
AcDbEntity
  8
Layer 1
 62
   250
370
     9
100
AcDbLine
 10
163.9621438422377
 20
113.5913701883614
 30
0.0
 11
163.9621438422377
 21
167.9547651470991
 31
0.0
  0
LINE
  5
7D
330
70
100
AcDbEntity
  8
Layer 1
 62
   250
370
     9
100
AcDbLine
 10
164.5913751538775
 20
113.5913701883614
 30
0.0
 11
164.5913751538775
 21
167.9547651470991
 31
0.0
  0
LINE
  5
7E
330
70
100
AcDbEntity
  8
Layer 1
 62
   250
370
     9
100
AcDbLine
 10
165.248330109912
 20
113.5913701883614
 30
0.0
 11
165.248330109912
 21
167.9547651470991
 31
0.0
  0
LINE
  5
7F
330
70
100
AcDbEntity
  8
Layer 1
 62
   250
370
     9
100
AcDbLine
 10
128.5408165485913
 20
167.4621608639673
 30
0.0
 11
128.5408165485913
 21
167.4621608639673
 31
0.0
  0
LINE
  5
80
330
70
100
AcDbEntity
  8
Layer 1
 62
   250
370
     9
100
AcDbLine
 10
128.8966298005869
 20
167.8179741159627
 30
0.0
 11
128.8966298005869
 21
167.8179741159627
 31
0.0
  0
LINE
  5
81
330
70
100
AcDbEntity
  8
Layer 1
 62
   250
370
     9
100
AcDbLine
 10
128.3764565186796
 20
166.5861343105779
 30
0.0
 11
128.3764565186796
 21
166.5861343105779
 31
0.0
  0
LINE
  5
82
330
70
100
AcDbEntity
  8
Layer 1
 62
   250
370
     9
100
AcDbLine
 10
128.7325098875925
 20
166.9419875820597
 30
0.0
 11
128.7325098875925
 21
166.9419875820597
 31
0.0
  0
LINE
  5
83
330
70
100
AcDbEntity
  8
Layer 1
 62
   250
370
     9
100
AcDbLine
 10
129.0883231395878
 20
167.2978008340554
 30
0.0
 11
129.0883231395878
 21
167.2978008340554
 31
0.0
  0
LINE
  5
84
330
70
100
AcDbEntity
  8
Layer 1
 62
   250
370
     9
100
AcDbLine
 10
129.4441764110697
 20
167.6536541055368
 30
0.0
 11
129.4441764110697
 21
167.6536541055368
 31
0.0
  0
LINE
  5
85
330
70
100
AcDbEntity
  8
Layer 1
 62
   250
370
     9
100
AcDbLine
 10
128.5408165485913
 20
166.0385877000948
 30
0.0
 11
128.5408165485913
 21
166.0385877000948
 31
0.0
  0
LINE
  5
86
330
70
100
AcDbEntity
  8
Layer 1
 62
   250
370
     9
100
AcDbLine
 10
128.8966298005869
 20
166.3946410690078
 30
0.0
 11
128.8966298005869
 21
166.3946410690078
 31
0.0
  0
LINE
  5
87
330
70
100
AcDbEntity
  8
Layer 1
 62
   250
370
     9
100
AcDbLine
 10
129.2524830720684
 20
166.7504543210034
 30
0.0
 11
129.2524830720684
 21
166.7504543210034
 31
0.0
  0
LINE
  5
88
330
70
100
AcDbEntity
  8
Layer 1
 62
   250
370
     9
100
AcDbLine
 10
129.6084964214955
 20
167.1063075924852
 30
0.0
 11
129.6084964214955
 21
167.1063075924852
 31
0.0
  0
LINE
  5
89
330
70
100
AcDbEntity
  8
Layer 1
 62
   250
370
     9
100
AcDbLine
 10
129.9915229241216
 20
167.4621608639673
 30
0.0
 11
129.9915229241216
 21
167.4621608639673
 31
0.0
  0
LINE
  5
8A
330
70
100
AcDbEntity
  8
Layer 1
 62
   250
370
     9
100
AcDbLine
 10
130.347536273548
 20
167.8179741159627
 30
0.0
 11
130.347536273548
 21
167.8179741159627
 31
0.0
  0
LINE
  5
8B
330
70
100
AcDbEntity
  8
Layer 1
 62
   250
370
     9
100
AcDbLine
 10
128.3764565186796
 20
165.1626055228871
 30
0.0
 11
128.3764565186796
 21
165.1626055228871
 31
0.0
  0
LINE
  5
8C
330
70
100
AcDbEntity
  8
Layer 1
 62
   250
370
     9
100
AcDbLine
 10
128.7325098875925
 20
165.5186145156186
 30
0.0
 11
128.7325098875925
 21
165.5186145156186
 31
0.0
  0
LINE
  5
8D
330
70
100
AcDbEntity
  8
Layer 1
 62
   250
370
     9
100
AcDbLine
 10
129.0883231395878
 20
165.8744677871001
 30
0.0
 11
129.0883231395878
 21
165.8744677871001
 31
0.0
  0
LINE
  5
8E
330
70
100
AcDbEntity
  8
Layer 1
 62
   250
370
     9
100
AcDbLine
 10
129.4441764110697
 20
166.2302810390957
 30
0.0
 11
129.4441764110697
 21
166.2302810390957
 31
0.0
  0
LINE
  5
8F
330
70
100
AcDbEntity
  8
Layer 1
 62
   250
370
     9
100
AcDbLine
 10
129.8000337334265
 20
166.5861343105779
 30
0.0
 11
129.8000337334265
 21
166.5861343105779
 31
0.0
  0
LINE
  5
90
330
70
100
AcDbEntity
  8
Layer 1
 62
   250
370
     9
100
AcDbLine
 10
130.1558429345471
 20
166.9419875820597
 30
0.0
 11
130.1558429345471
 21
166.9419875820597
 31
0.0
  0
LINE
  5
91
330
70
100
AcDbEntity
  8
Layer 1
 62
   250
370
     9
100
AcDbLine
 10
130.511696206029
 20
167.2978008340554
 30
0.0
 11
130.511696206029
 21
167.2978008340554
 31
0.0
  0
LINE
  5
92
330
70
100
AcDbEntity
  8
Layer 1
 62
   250
370
     9
100
AcDbLine
 10
130.8675094580246
 20
167.6536541055368
 30
0.0
 11
130.8675094580246
 21
167.6536541055368
 31
0.0
  0
LINE
  5
93
330
70
100
AcDbEntity
  8
Layer 1
 62
   250
370
     9
100
AcDbLine
 10
128.5408165485913
 20
164.6152546531399
 30
0.0
 11
128.5408165485913
 21
164.6152546531399
 31
0.0
  0
LINE
  5
94
330
70
100
AcDbEntity
  8
Layer 1
 62
   250
370
     9
100
AcDbLine
 10
128.8966298005869
 20
164.9710679051359
 30
0.0
 11
128.8966298005869
 21
164.9710679051359
 31
0.0
  0
LINE
  5
95
330
70
100
AcDbEntity
  8
Layer 1
 62
   250
370
     9
100
AcDbLine
 10
129.2524830720684
 20
165.3269211766174
 30
0.0
 11
129.2524830720684
 21
165.3269211766174
 31
0.0
  0
LINE
  5
96
330
70
100
AcDbEntity
  8
Layer 1
 62
   250
370
     9
100
AcDbLine
 10
129.6084964214955
 20
165.6827744480995
 30
0.0
 11
129.6084964214955
 21
165.6827744480995
 31
0.0
  0
LINE
  5
97
330
70
100
AcDbEntity
  8
Layer 1
 62
   250
370
     9
100
AcDbLine
 10
129.9915229241216
 20
166.0385877000948
 30
0.0
 11
129.9915229241216
 21
166.0385877000948
 31
0.0
  0
LINE
  5
98
330
70
100
AcDbEntity
  8
Layer 1
 62
   250
370
     9
100
AcDbLine
 10
130.347536273548
 20
166.3946410690078
 30
0.0
 11
130.347536273548
 21
166.3946410690078
 31
0.0
  0
LINE
  5
99
330
70
100
AcDbEntity
  8
Layer 1
 62
   250
370
     9
100
AcDbLine
 10
130.7033895450302
 20
166.7504543210034
 30
0.0
 11
130.7033895450302
 21
166.7504543210034
 31
0.0
  0
LINE
  5
9A
330
70
100
AcDbEntity
  8
Layer 1
 62
   250
370
     9
100
AcDbLine
 10
131.0592027970258
 20
167.1063075924852
 30
0.0
 11
131.0592027970258
 21
167.1063075924852
 31
0.0
  0
LINE
  5
9B
330
70
100
AcDbEntity
  8
Layer 1
 62
   250
370
     9
100
AcDbLine
 10
131.4150560685076
 20
167.4621608639673
 30
0.0
 11
131.4150560685076
 21
167.4621608639673
 31
0.0
  0
LINE
  5
9C
330
70
100
AcDbEntity
  8
Layer 1
 62
   250
370
     9
100
AcDbLine
 10
128.3764565186796
 20
163.7118991107088
 30
0.0
 11
128.3764565186796
 21
163.7118991107088
 31
0.0
  0
LINE
  5
9D
330
70
100
AcDbEntity
  8
Layer 1
 62
   250
370
     9
100
AcDbLine
 10
128.7325098875925
 20
164.0677080426568
 30
0.0
 11
128.7325098875925
 21
164.0677080426568
 31
0.0
  0
LINE
  5
9E
330
70
100
AcDbEntity
  8
Layer 1
 62
   250
370
     9
100
AcDbLine
 10
129.0883231395878
 20
164.423561314139
 30
0.0
 11
129.0883231395878
 21
164.423561314139
 31
0.0
  0
LINE
  5
9F
330
70
100
AcDbEntity
  8
Layer 1
 62
   250
370
     9
100
AcDbLine
 10
129.4441764110697
 20
164.80674789471
 30
0.0
 11
129.4441764110697
 21
164.80674789471
 31
0.0
  0
LINE
  5
A0
330
70
100
AcDbEntity
  8
Layer 1
 62
   250
370
     9
100
AcDbLine
 10
129.8000337334265
 20
165.1626055228871
 30
0.0
 11
129.8000337334265
 21
165.1626055228871
 31
0.0
  0
LINE
  5
A1
330
70
100
AcDbEntity
  8
Layer 1
 62
   250
370
     9
100
AcDbLine
 10
130.1558429345471
 20
165.5186145156186
 30
0.0
 11
130.1558429345471
 21
165.5186145156186
 31
0.0
  0
LINE
  5
A2
330
70
100
AcDbEntity
  8
Layer 1
 62
   250
370
     9
100
AcDbLine
 10
130.511696206029
 20
165.8744677871001
 30
0.0
 11
130.511696206029
 21
165.8744677871001
 31
0.0
  0
LINE
  5
A3
330
70
100
AcDbEntity
  8
Layer 1
 62
   250
370
     9
100
AcDbLine
 10
130.8675094580246
 20
166.2302810390957
 30
0.0
 11
130.8675094580246
 21
166.2302810390957
 31
0.0
  0
LINE
  5
A4
330
70
100
AcDbEntity
  8
Layer 1
 62
   250
370
     9
100
AcDbLine
 10
131.2235628269372
 20
166.5861343105779
 30
0.0
 11
131.2235628269372
 21
166.5861343105779
 31
0.0
  0
LINE
  5
A5
330
70
100
AcDbEntity
  8
Layer 1
 62
   250
370
     9
100
AcDbLine
 10
128.5408165485913
 20
163.1918815866991
 30
0.0
 11
128.5408165485913
 21
163.1918815866991
 31
0.0
  0
LINE
  5
A6
330
70
100
AcDbEntity
  8
Layer 1
 62
   250
370
     9
100
AcDbLine
 10
128.8966298005869
 20
163.5475347607498
 30
0.0
 11
128.8966298005869
 21
163.5475347607498
 31
0.0
  0
LINE
  5
A7
330
70
100
AcDbEntity
  8
Layer 1
 62
   250
370
     9
100
AcDbLine
 10
129.2524830720684
 20
163.9035924545526
 30
0.0
 11
129.2524830720684
 21
163.9035924545526
 31
0.0
  0
LINE
  5
A8
330
70
100
AcDbEntity
  8
Layer 1
 62
   250
370
     9
100
AcDbLine
 10
129.6084964214955
 20
164.2594013816581
 30
0.0
 11
129.6084964214955
 21
164.2594013816581
 31
0.0
  0
LINE
  5
A9
330
70
100
AcDbEntity
  8
Layer 1
 62
   250
370
     9
100
AcDbLine
 10
129.9915229241216
 20
164.6152546531399
 30
0.0
 11
129.9915229241216
 21
164.6152546531399
 31
0.0
  0
LINE
  5
AA
330
70
100
AcDbEntity
  8
Layer 1
 62
   250
370
     9
100
AcDbLine
 10
130.347536273548
 20
164.9710679051359
 30
0.0
 11
130.347536273548
 21
164.9710679051359
 31
0.0
  0
LINE
  5
AB
330
70
100
AcDbEntity
  8
Layer 1
 62
   250
370
     9
100
AcDbLine
 10
130.7033895450302
 20
165.3269211766174
 30
0.0
 11
130.7033895450302
 21
165.3269211766174
 31
0.0
  0
LINE
  5
AC
330
70
100
AcDbEntity
  8
Layer 1
 62
   250
370
     9
100
AcDbLine
 10
131.0592027970258
 20
165.6827744480995
 30
0.0
 11
131.0592027970258
 21
165.6827744480995
 31
0.0
  0
LINE
  5
AD
330
70
100
AcDbEntity
  8
Layer 1
 62
   250
370
     9
100
AcDbLine
 10
131.4150560685076
 20
166.0385877000948
 30
0.0
 11
131.4150560685076
 21
166.0385877000948
 31
0.0
  0
LINE
  5
AE
330
70
100
AcDbEntity
  8
Layer 1
 62
   250
370
     9
100
AcDbLine
 10
128.3764565186796
 20
162.2885217242204
 30
0.0
 11
128.3764565186796
 21
162.2885217242204
 31
0.0
  0
LINE
  5
AF
330
70
100
AcDbEntity
  8
Layer 1
 62
   250
370
     9
100
AcDbLine
 10
128.7325098875925
 20
162.6443749957019
 30
0.0
 11
128.7325098875925
 21
162.6443749957019
 31
0.0
  0
LINE
  5
B0
330
70
100
AcDbEntity
  8
Layer 1
 62
   250
370
     9
100
AcDbLine
 10
129.0883231395878
 20
163.0001882476979
 30
0.0
 11
129.0883231395878
 21
163.0001882476979
 31
0.0
  0
LINE
  5
B1
330
70
100
AcDbEntity
  8
Layer 1
 62
   250
370
     9
100
AcDbLine
 10
129.4441764110697
 20
163.35604151918
 30
0.0
 11
129.4441764110697
 21
163.35604151918
 31
0.0
  0
LINE
  5
B2
330
70
100
AcDbEntity
  8
Layer 1
 62
   250
370
     9
100
AcDbLine
 10
129.8000337334265
 20
163.7118991107088
 30
0.0
 11
129.8000337334265
 21
163.7118991107088
 31
0.0
  0
LINE
  5
B3
330
70
100
AcDbEntity
  8
Layer 1
 62
   250
370
     9
100
AcDbLine
 10
130.1558429345471
 20
164.0677080426568
 30
0.0
 11
130.1558429345471
 21
164.0677080426568
 31
0.0
  0
LINE
  5
B4
330
70
100
AcDbEntity
  8
Layer 1
 62
   250
370
     9
100
AcDbLine
 10
130.511696206029
 20
164.423561314139
 30
0.0
 11
130.511696206029
 21
164.423561314139
 31
0.0
  0
LINE
  5
B5
330
70
100
AcDbEntity
  8
Layer 1
 62
   250
370
     9
100
AcDbLine
 10
130.8675094580246
 20
164.80674789471
 30
0.0
 11
130.8675094580246
 21
164.80674789471
 31
0.0
  0
LINE
  5
B6
330
70
100
AcDbEntity
  8
Layer 1
 62
   250
370
     9
100
AcDbLine
 10
131.2235628269372
 20
165.1626055228871
 30
0.0
 11
131.2235628269372
 21
165.1626055228871
 31
0.0
  0
LINE
  5
B7
330
70
100
AcDbEntity
  8
Layer 1
 62
   250
370
     9
100
AcDbLine
 10
128.5408165485913
 20
161.7685528106982
 30
0.0
 11
128.5408165485913
 21
161.7685528106982
 31
0.0
  0
LINE
  5
B8
330
70
100
AcDbEntity
  8
Layer 1
 62
   250
370
     9
100
AcDbLine
 10
128.8966298005869
 20
162.124401811226
 30
0.0
 11
128.8966298005869
 21
162.124401811226
 31
0.0
  0
LINE
  5
B9
330
70
100
AcDbEntity
  8
Layer 1
 62
   250
370
     9
100
AcDbLine
 10
129.2524830720684
 20
162.4802150632213
 30
0.0
 11
129.2524830720684
 21
162.4802150632213
 31
0.0
  0
LINE
  5
BA
330
70
100
AcDbEntity
  8
Layer 1
 62
   250
370
     9
100
AcDbLine
 10
129.6084964214955
 20
162.8358725351893
 30
0.0
 11
129.6084964214955
 21
162.8358725351893
 31
0.0
  0
LINE
  5
BB
330
70
100
AcDbEntity
  8
Layer 1
 62
   250
370
     9
100
AcDbLine
 10
129.9915229241216
 20
163.1918815866991
 30
0.0
 11
129.9915229241216
 21
163.1918815866991
 31
0.0
  0
LINE
  5
BC
330
70
100
AcDbEntity
  8
Layer 1
 62
   250
370
     9
100
AcDbLine
 10
130.347536273548
 20
163.5475347607498
 30
0.0
 11
130.347536273548
 21
163.5475347607498
 31
0.0
  0
LINE
  5
BD
330
70
100
AcDbEntity
  8
Layer 1
 62
   250
370
     9
100
AcDbLine
 10
130.7033895450302
 20
163.9035924545526
 30
0.0
 11
130.7033895450302
 21
163.9035924545526
 31
0.0
  0
LINE
  5
BE
330
70
100
AcDbEntity
  8
Layer 1
 62
   250
370
     9
100
AcDbLine
 10
131.0592027970258
 20
164.2594013816581
 30
0.0
 11
131.0592027970258
 21
164.2594013816581
 31
0.0
  0
LINE
  5
BF
330
70
100
AcDbEntity
  8
Layer 1
 62
   250
370
     9
100
AcDbLine
 10
131.4150560685076
 20
164.6152546531399
 30
0.0
 11
131.4150560685076
 21
164.6152546531399
 31
0.0
  0
LINE
  5
C0
330
70
100
AcDbEntity
  8
Layer 1
 62
   250
370
     9
100
AcDbLine
 10
128.3764565186796
 20
160.8651886772655
 30
0.0
 11
128.3764565186796
 21
160.8651886772655
 31
0.0
  0
LINE
  5
C1
330
70
100
AcDbEntity
  8
Layer 1
 62
   250
370
     9
100
AcDbLine
 10
128.7325098875925
 20
161.2210019292608
 30
0.0
 11
128.7325098875925
 21
161.2210019292608
 31
0.0
  0
LINE
  5
C2
330
70
100
AcDbEntity
  8
Layer 1
 62
   250
370
     9
100
AcDbLine
 10
129.0883231395878
 20
161.5768594668547
 30
0.0
 11
129.0883231395878
 21
161.5768594668547
 31
0.0
  0
LINE
  5
C3
330
70
100
AcDbEntity
  8
Layer 1
 62
   250
370
     9
100
AcDbLine
 10
129.4441764110697
 20
161.9325083747937
 30
0.0
 11
129.4441764110697
 21
161.9325083747937
 31
0.0
  0
LINE
  5
C4
330
70
100
AcDbEntity
  8
Layer 1
 62
   250
370
     9
100
AcDbLine
 10
129.8000337334265
 20
162.2885217242204
 30
0.0
 11
129.8000337334265
 21
162.2885217242204
 31
0.0
  0
LINE
  5
C5
330
70
100
AcDbEntity
  8
Layer 1
 62
   250
370
     9
100
AcDbLine
 10
130.1558429345471
 20
162.6443749957019
 30
0.0
 11
130.1558429345471
 21
162.6443749957019
 31
0.0
  0
LINE
  5
C6
330
70
100
AcDbEntity
  8
Layer 1
 62
   250
370
     9
100
AcDbLine
 10
130.511696206029
 20
163.0001882476979
 30
0.0
 11
130.511696206029
 21
163.0001882476979
 31
0.0
  0
LINE
  5
C7
330
70
100
AcDbEntity
  8
Layer 1
 62
   250
370
     9
100
AcDbLine
 10
130.8675094580246
 20
163.35604151918
 30
0.0
 11
130.8675094580246
 21
163.35604151918
 31
0.0
  0
LINE
  5
C8
330
70
100
AcDbEntity
  8
Layer 1
 62
   250
370
     9
100
AcDbLine
 10
131.2235628269372
 20
163.7118991107088
 30
0.0
 11
131.2235628269372
 21
163.7118991107088
 31
0.0
  0
LINE
  5
C9
330
70
100
AcDbEntity
  8
Layer 1
 62
   250
370
     9
100
AcDbLine
 10
128.5408165485913
 20
160.3176420667824
 30
0.0
 11
128.5408165485913
 21
160.3176420667824
 31
0.0
  0
LINE
  5
CA
330
70
100
AcDbEntity
  8
Layer 1
 62
   250
370
     9
100
AcDbLine
 10
128.8966298005869
 20
160.700832891335
 30
0.0
 11
128.8966298005869
 21
160.700832891335
 31
0.0
  0
LINE
  5
CB
330
70
100
AcDbEntity
  8
Layer 1
 62
   250
370
     9
100
AcDbLine
 10
129.2524830720684
 20
161.0566819188356
 30
0.0
 11
129.2524830720684
 21
161.0566819188356
 31
0.0
  0
LINE
  5
CC
330
70
100
AcDbEntity
  8
Layer 1
 62
   250
370
     9
100
AcDbLine
 10
129.6084964214955
 20
161.4125351903171
 30
0.0
 11
129.6084964214955
 21
161.4125351903171
 31
0.0
  0
LINE
  5
CD
330
70
100
AcDbEntity
  8
Layer 1
 62
   250
370
     9
100
AcDbLine
 10
129.9915229241216
 20
161.7685528106982
 30
0.0
 11
129.9915229241216
 21
161.7685528106982
 31
0.0
  0
LINE
  5
CE
330
70
100
AcDbEntity
  8
Layer 1
 62
   250
370
     9
100
AcDbLine
 10
130.347536273548
 20
162.124401811226
 30
0.0
 11
130.347536273548
 21
162.124401811226
 31
0.0
  0
LINE
  5
CF
330
70
100
AcDbEntity
  8
Layer 1
 62
   250
370
     9
100
AcDbLine
 10
130.7033895450302
 20
162.4802150632213
 30
0.0
 11
130.7033895450302
 21
162.4802150632213
 31
0.0
  0
LINE
  5
D0
330
70
100
AcDbEntity
  8
Layer 1
 62
   250
370
     9
100
AcDbLine
 10
131.0592027970258
 20
162.8358725351893
 30
0.0
 11
131.0592027970258
 21
162.8358725351893
 31
0.0
  0
LINE
  5
D1
330
70
100
AcDbEntity
  8
Layer 1
 62
   250
370
     9
100
AcDbLine
 10
131.4150560685076
 20
163.1918815866991
 30
0.0
 11
131.4150560685076
 21
163.1918815866991
 31
0.0
  0
LINE
  5
D2
330
70
100
AcDbEntity
  8
Layer 1
 62
   250
370
     9
100
AcDbLine
 10
128.3764565186796
 20
159.4416555328794
 30
0.0
 11
128.3764565186796
 21
159.4416555328794
 31
0.0
  0
LINE
  5
D3
330
70
100
AcDbEntity
  8
Layer 1
 62
   250
370
     9
100
AcDbLine
 10
128.7325098875925
 20
159.7974687848751
 30
0.0
 11
128.7325098875925
 21
159.7974687848751
 31
0.0
  0
LINE
  5
D4
330
70
100
AcDbEntity
  8
Layer 1
 62
   250
370
     9
100
AcDbLine
 10
129.0883231395878
 20
160.1535221537877
 30
0.0
 11
129.0883231395878
 21
160.1535221537877
 31
0.0
  0
LINE
  5
D5
330
70
100
AcDbEntity
  8
Layer 1
 62
   250
370
     9
100
AcDbLine
 10
129.4441764110697
 20
160.5093354057836
 30
0.0
 11
129.4441764110697
 21
160.5093354057836
 31
0.0
  0
LINE
  5
D6
330
70
100
AcDbEntity
  8
Layer 1
 62
   250
370
     9
100
AcDbLine
 10
129.8000337334265
 20
160.8651886772655
 30
0.0
 11
129.8000337334265
 21
160.8651886772655
 31
0.0
  0
LINE
  5
D7
330
70
100
AcDbEntity
  8
Layer 1
 62
   250
370
     9
100
AcDbLine
 10
130.1558429345471
 20
161.2210019292608
 30
0.0
 11
130.1558429345471
 21
161.2210019292608
 31
0.0
  0
LINE
  5
D8
330
70
100
AcDbEntity
  8
Layer 1
 62
   250
370
     9
100
AcDbLine
 10
130.511696206029
 20
161.5768594668547
 30
0.0
 11
130.511696206029
 21
161.5768594668547
 31
0.0
  0
LINE
  5
D9
330
70
100
AcDbEntity
  8
Layer 1
 62
   250
370
     9
100
AcDbLine
 10
130.8675094580246
 20
161.9325083747937
 30
0.0
 11
130.8675094580246
 21
161.9325083747937
 31
0.0
  0
LINE
  5
DA
330
70
100
AcDbEntity
  8
Layer 1
 62
   250
370
     9
100
AcDbLine
 10
131.2235628269372
 20
162.2885217242204
 30
0.0
 11
131.2235628269372
 21
162.2885217242204
 31
0.0
  0
LINE
  5
DB
330
70
100
AcDbEntity
  8
Layer 1
 62
   250
370
     9
100
AcDbLine
 10
128.5408165485913
 20
158.8943090198278
 30
0.0
 11
128.5408165485913
 21
158.8943090198278
 31
0.0
  0
LINE
  5
DC
330
70
100
AcDbEntity
  8
Layer 1
 62
   250
370
     9
100
AcDbLine
 10
128.8966298005869
 20
159.2501264791572
 30
0.0
 11
128.8966298005869
 21
159.2501264791572
 31
0.0
  0
LINE
  5
DD
330
70
100
AcDbEntity
  8
Layer 1
 62
   250
370
     9
100
AcDbLine
 10
129.2524830720684
 20
159.605975543305
 30
0.0
 11
129.2524830720684
 21
159.605975543305
 31
0.0
  0
LINE
  5
DE
330
70
100
AcDbEntity
  8
Layer 1
 62
   250
370
     9
100
AcDbLine
 10
129.6084964214955
 20
159.9618288147874
 30
0.0
 11
129.6084964214955
 21
159.9618288147874
 31
0.0
  0
LINE
  5
DF
330
70
100
AcDbEntity
  8
Layer 1
 62
   250
370
     9
100
AcDbLine
 10
129.9915229241216
 20
160.3176420667824
 30
0.0
 11
129.9915229241216
 21
160.3176420667824
 31
0.0
  0
LINE
  5
E0
330
70
100
AcDbEntity
  8
Layer 1
 62
   250
370
     9
100
AcDbLine
 10
130.347536273548
 20
160.700832891335
 30
0.0
 11
130.347536273548
 21
160.700832891335
 31
0.0
  0
LINE
  5
E1
330
70
100
AcDbEntity
  8
Layer 1
 62
   250
370
     9
100
AcDbLine
 10
130.7033895450302
 20
161.0566819188356
 30
0.0
 11
130.7033895450302
 21
161.0566819188356
 31
0.0
  0
LINE
  5
E2
330
70
100
AcDbEntity
  8
Layer 1
 62
   250
370
     9
100
AcDbLine
 10
131.0592027970258
 20
161.4125351903171
 30
0.0
 11
131.0592027970258
 21
161.4125351903171
 31
0.0
  0
LINE
  5
E3
330
70
100
AcDbEntity
  8
Layer 1
 62
   250
370
     9
100
AcDbLine
 10
131.4150560685076
 20
161.7685528106982
 30
0.0
 11
131.4150560685076
 21
161.7685528106982
 31
0.0
  0
LINE
  5
E4
330
70
100
AcDbEntity
  8
Layer 1
 62
   250
370
     9
100
AcDbLine
 10
128.3764565186796
 20
158.0184825638694
 30
0.0
 11
128.3764565186796
 21
158.0184825638694
 31
0.0
  0
LINE
  5
E5
330
70
100
AcDbEntity
  8
Layer 1
 62
   250
370
     9
100
AcDbLine
 10
128.7325098875925
 20
158.3743358353513
 30
0.0
 11
128.7325098875925
 21
158.3743358353513
 31
0.0
  0
LINE
  5
E6
330
70
100
AcDbEntity
  8
Layer 1
 62
   250
370
     9
100
AcDbLine
 10
129.0883231395878
 20
158.7301490873469
 30
0.0
 11
129.0883231395878
 21
158.7301490873469
 31
0.0
  0
LINE
  5
E7
330
70
100
AcDbEntity
  8
Layer 1
 62
   250
370
     9
100
AcDbLine
 10
129.4441764110697
 20
159.0858022613976
 30
0.0
 11
129.4441764110697
 21
159.0858022613976
 31
0.0
  0
LINE
  5
E8
330
70
100
AcDbEntity
  8
Layer 1
 62
   250
370
     9
100
AcDbLine
 10
129.8000337334265
 20
159.4416555328794
 30
0.0
 11
129.8000337334265
 21
159.4416555328794
 31
0.0
  0
LINE
  5
E9
330
70
100
AcDbEntity
  8
Layer 1
 62
   250
370
     9
100
AcDbLine
 10
130.1558429345471
 20
159.7974687848751
 30
0.0
 11
130.1558429345471
 21
159.7974687848751
 31
0.0
  0
LINE
  5
EA
330
70
100
AcDbEntity
  8
Layer 1
 62
   250
370
     9
100
AcDbLine
 10
130.511696206029
 20
160.1535221537877
 30
0.0
 11
130.511696206029
 21
160.1535221537877
 31
0.0
  0
LINE
  5
EB
330
70
100
AcDbEntity
  8
Layer 1
 62
   250
370
     9
100
AcDbLine
 10
130.8675094580246
 20
160.5093354057836
 30
0.0
 11
130.8675094580246
 21
160.5093354057836
 31
0.0
  0
LINE
  5
EC
330
70
100
AcDbEntity
  8
Layer 1
 62
   250
370
     9
100
AcDbLine
 10
131.2235628269372
 20
160.8651886772655
 30
0.0
 11
131.2235628269372
 21
160.8651886772655
 31
0.0
  0
LINE
  5
ED
330
70
100
AcDbEntity
  8
Layer 1
 62
   250
370
     9
100
AcDbLine
 10
128.5408165485913
 20
157.4709359533867
 30
0.0
 11
128.5408165485913
 21
157.4709359533867
 31
0.0
  0
LINE
  5
EE
330
70
100
AcDbEntity
  8
Layer 1
 62
   250
370
     9
100
AcDbLine
 10
128.8966298005869
 20
157.8265891274371
 30
0.0
 11
128.8966298005869
 21
157.8265891274371
 31
0.0
  0
LINE
  5
EF
330
70
100
AcDbEntity
  8
Layer 1
 62
   250
370
     9
100
AcDbLine
 10
129.2524830720684
 20
158.1824423989189
 30
0.0
 11
129.2524830720684
 21
158.1824423989189
 31
0.0
  0
LINE
  5
F0
330
70
100
AcDbEntity
  8
Layer 1
 62
   250
370
     9
100
AcDbLine
 10
129.6084964214955
 20
158.5384557483457
 30
0.0
 11
129.6084964214955
 21
158.5384557483457
 31
0.0
  0
LINE
  5
F1
330
70
100
AcDbEntity
  8
Layer 1
 62
   250
370
     9
100
AcDbLine
 10
129.9915229241216
 20
158.8943090198278
 30
0.0
 11
129.9915229241216
 21
158.8943090198278
 31
0.0
  0
LINE
  5
F2
330
70
100
AcDbEntity
  8
Layer 1
 62
   250
370
     9
100
AcDbLine
 10
130.347536273548
 20
159.2501264791572
 30
0.0
 11
130.347536273548
 21
159.2501264791572
 31
0.0
  0
LINE
  5
F3
330
70
100
AcDbEntity
  8
Layer 1
 62
   250
370
     9
100
AcDbLine
 10
130.7033895450302
 20
159.605975543305
 30
0.0
 11
130.7033895450302
 21
159.605975543305
 31
0.0
  0
LINE
  5
F4
330
70
100
AcDbEntity
  8
Layer 1
 62
   250
370
     9
100
AcDbLine
 10
131.0592027970258
 20
159.9618288147874
 30
0.0
 11
131.0592027970258
 21
159.9618288147874
 31
0.0
  0
LINE
  5
F5
330
70
100
AcDbEntity
  8
Layer 1
 62
   250
370
     9
100
AcDbLine
 10
131.4150560685076
 20
160.3176420667824
 30
0.0
 11
131.4150560685076
 21
160.3176420667824
 31
0.0
  0
LINE
  5
F6
330
70
100
AcDbEntity
  8
Layer 1
 62
   250
370
     9
100
AcDbLine
 10
128.3764565186796
 20
156.567576090908
 30
0.0
 11
128.3764565186796
 21
156.567576090908
 31
0.0
  0
LINE
  5
F7
330
70
100
AcDbEntity
  8
Layer 1
 62
   250
370
     9
100
AcDbLine
 10
128.7325098875925
 20
156.950762671479
 30
0.0
 11
128.7325098875925
 21
156.950762671479
 31
0.0
  0
LINE
  5
F8
330
70
100
AcDbEntity
  8
Layer 1
 62
   250
370
     9
100
AcDbLine
 10
129.0883231395878
 20
157.3066159429609
 30
0.0
 11
129.0883231395878
 21
157.3066159429609
 31
0.0
  0
LINE
  5
F9
330
70
100
AcDbEntity
  8
Layer 1
 62
   250
370
     9
100
AcDbLine
 10
129.4441764110697
 20
157.6624692144427
 30
0.0
 11
129.4441764110697
 21
157.6624692144427
 31
0.0
  0
LINE
  5
FA
330
70
100
AcDbEntity
  8
Layer 1
 62
   250
370
     9
100
AcDbLine
 10
129.8000337334265
 20
158.0184825638694
 30
0.0
 11
129.8000337334265
 21
158.0184825638694
 31
0.0
  0
LINE
  5
FB
330
70
100
AcDbEntity
  8
Layer 1
 62
   250
370
     9
100
AcDbLine
 10
130.1558429345471
 20
158.3743358353513
 30
0.0
 11
130.1558429345471
 21
158.3743358353513
 31
0.0
  0
LINE
  5
FC
330
70
100
AcDbEntity
  8
Layer 1
 62
   250
370
     9
100
AcDbLine
 10
130.511696206029
 20
158.7301490873469
 30
0.0
 11
130.511696206029
 21
158.7301490873469
 31
0.0
  0
LINE
  5
FD
330
70
100
AcDbEntity
  8
Layer 1
 62
   250
370
     9
100
AcDbLine
 10
130.8675094580246
 20
159.0858022613976
 30
0.0
 11
130.8675094580246
 21
159.0858022613976
 31
0.0
  0
LINE
  5
FE
330
70
100
AcDbEntity
  8
Layer 1
 62
   250
370
     9
100
AcDbLine
 10
131.2235628269372
 20
159.4416555328794
 30
0.0
 11
131.2235628269372
 21
159.4416555328794
 31
0.0
  0
LINE
  5
FF
330
70
100
AcDbEntity
  8
Layer 1
 62
   250
370
     9
100
AcDbLine
 10
128.5408165485913
 20
156.0474028090007
 30
0.0
 11
128.5408165485913
 21
156.0474028090007
 31
0.0
  0
LINE
  5
100
330
70
100
AcDbEntity
  8
Layer 1
 62
   250
370
     9
100
AcDbLine
 10
128.8966298005869
 20
156.4034561779136
 30
0.0
 11
128.8966298005869
 21
156.4034561779136
 31
0.0
  0
LINE
  5
101
330
70
100
AcDbEntity
  8
Layer 1
 62
   250
370
     9
100
AcDbLine
 10
129.2524830720684
 20
156.7592694299093
 30
0.0
 11
129.2524830720684
 21
156.7592694299093
 31
0.0
  0
LINE
  5
102
330
70
100
AcDbEntity
  8
Layer 1
 62
   250
370
     9
100
AcDbLine
 10
129.6084964214955
 20
157.1151227013907
 30
0.0
 11
129.6084964214955
 21
157.1151227013907
 31
0.0
  0
LINE
  5
103
330
70
100
AcDbEntity
  8
Layer 1
 62
   250
370
     9
100
AcDbLine
 10
129.9915229241216
 20
157.4709359533867
 30
0.0
 11
129.9915229241216
 21
157.4709359533867
 31
0.0
  0
LINE
  5
104
330
70
100
AcDbEntity
  8
Layer 1
 62
   250
370
     9
100
AcDbLine
 10
130.347536273548
 20
157.8265891274371
 30
0.0
 11
130.347536273548
 21
157.8265891274371
 31
0.0
  0
LINE
  5
105
330
70
100
AcDbEntity
  8
Layer 1
 62
   250
370
     9
100
AcDbLine
 10
130.7033895450302
 20
158.1824423989189
 30
0.0
 11
130.7033895450302
 21
158.1824423989189
 31
0.0
  0
LINE
  5
106
330
70
100
AcDbEntity
  8
Layer 1
 62
   250
370
     9
100
AcDbLine
 10
131.0592027970258
 20
158.5384557483457
 30
0.0
 11
131.0592027970258
 21
158.5384557483457
 31
0.0
  0
LINE
  5
107
330
70
100
AcDbEntity
  8
Layer 1
 62
   250
370
     9
100
AcDbLine
 10
131.4150560685076
 20
158.8943090198278
 30
0.0
 11
131.4150560685076
 21
158.8943090198278
 31
0.0
  0
LINE
  5
108
330
70
100
AcDbEntity
  8
Layer 1
 62
   250
370
     9
100
AcDbLine
 10
128.3764565186796
 20
155.1442430439531
 30
0.0
 11
128.3764565186796
 21
155.1442430439531
 31
0.0
  0
LINE
  5
109
330
70
100
AcDbEntity
  8
Layer 1
 62
   250
370
     9
100
AcDbLine
 10
128.7325098875925
 20
155.5000562959487
 30
0.0
 11
128.7325098875925
 21
155.5000562959487
 31
0.0
  0
LINE
  5
10A
330
70
100
AcDbEntity
  8
Layer 1
 62
   250
370
     9
100
AcDbLine
 10
129.0883231395878
 20
155.8559095674305
 30
0.0
 11
129.0883231395878
 21
155.8559095674305
 31
0.0
  0
LINE
  5
10B
330
70
100
AcDbEntity
  8
Layer 1
 62
   250
370
     9
100
AcDbLine
 10
129.4441764110697
 20
156.2117628389123
 30
0.0
 11
129.4441764110697
 21
156.2117628389123
 31
0.0
  0
LINE
  5
10C
330
70
100
AcDbEntity
  8
Layer 1
 62
   250
370
     9
100
AcDbLine
 10
129.8000337334265
 20
156.567576090908
 30
0.0
 11
129.8000337334265
 21
156.567576090908
 31
0.0
  0
LINE
  5
10D
330
70
100
AcDbEntity
  8
Layer 1
 62
   250
370
     9
100
AcDbLine
 10
130.1558429345471
 20
156.950762671479
 30
0.0
 11
130.1558429345471
 21
156.950762671479
 31
0.0
  0
LINE
  5
10E
330
70
100
AcDbEntity
  8
Layer 1
 62
   250
370
     9
100
AcDbLine
 10
130.511696206029
 20
157.3066159429609
 30
0.0
 11
130.511696206029
 21
157.3066159429609
 31
0.0
  0
LINE
  5
10F
330
70
100
AcDbEntity
  8
Layer 1
 62
   250
370
     9
100
AcDbLine
 10
130.8675094580246
 20
157.6624692144427
 30
0.0
 11
130.8675094580246
 21
157.6624692144427
 31
0.0
  0
LINE
  5
110
330
70
100
AcDbEntity
  8
Layer 1
 62
   250
370
     9
100
AcDbLine
 10
131.2235628269372
 20
158.0184825638694
 30
0.0
 11
131.2235628269372
 21
158.0184825638694
 31
0.0
  0
LINE
  5
111
330
70
100
AcDbEntity
  8
Layer 1
 62
   250
370
     9
100
AcDbLine
 10
128.5408165485913
 20
154.6240697620454
 30
0.0
 11
128.5408165485913
 21
154.6240697620454
 31
0.0
  0
LINE
  5
112
330
70
100
AcDbEntity
  8
Layer 1
 62
   250
370
     9
100
AcDbLine
 10
128.8966298005869
 20
154.9798830140414
 30
0.0
 11
128.8966298005869
 21
154.9798830140414
 31
0.0
  0
LINE
  5
113
330
70
100
AcDbEntity
  8
Layer 1
 62
   250
370
     9
100
AcDbLine
 10
129.2524830720684
 20
155.3357362855232
 30
0.0
 11
129.2524830720684
 21
155.3357362855232
 31
0.0
  0
LINE
  5
114
330
70
100
AcDbEntity
  8
Layer 1
 62
   250
370
     9
100
AcDbLine
 10
129.6084964214955
 20
155.6915495375185
 30
0.0
 11
129.6084964214955
 21
155.6915495375185
 31
0.0
  0
LINE
  5
115
330
70
100
AcDbEntity
  8
Layer 1
 62
   250
370
     9
100
AcDbLine
 10
129.9915229241216
 20
156.0474028090007
 30
0.0
 11
129.9915229241216
 21
156.0474028090007
 31
0.0
  0
LINE
  5
116
330
70
100
AcDbEntity
  8
Layer 1
 62
   250
370
     9
100
AcDbLine
 10
130.347536273548
 20
156.4034561779136
 30
0.0
 11
130.347536273548
 21
156.4034561779136
 31
0.0
  0
LINE
  5
117
330
70
100
AcDbEntity
  8
Layer 1
 62
   250
370
     9
100
AcDbLine
 10
130.7033895450302
 20
156.7592694299093
 30
0.0
 11
130.7033895450302
 21
156.7592694299093
 31
0.0
  0
LINE
  5
118
330
70
100
AcDbEntity
  8
Layer 1
 62
   250
370
     9
100
AcDbLine
 10
131.0592027970258
 20
157.1151227013907
 30
0.0
 11
131.0592027970258
 21
157.1151227013907
 31
0.0
  0
LINE
  5
119
330
70
100
AcDbEntity
  8
Layer 1
 62
   250
370
     9
100
AcDbLine
 10
131.4150560685076
 20
157.4709359533867
 30
0.0
 11
131.4150560685076
 21
157.4709359533867
 31
0.0
  0
LINE
  5
11A
330
70
100
AcDbEntity
  8
Layer 1
 62
   250
370
     9
100
AcDbLine
 10
128.3764565186796
 20
153.7206698800809
 30
0.0
 11
128.3764565186796
 21
153.7206698800809
 31
0.0
  0
LINE
  5
11B
330
70
100
AcDbEntity
  8
Layer 1
 62
   250
370
     9
100
AcDbLine
 10
128.7325098875925
 20
154.0765231515627
 30
0.0
 11
128.7325098875925
 21
154.0765231515627
 31
0.0
  0
LINE
  5
11C
330
70
100
AcDbEntity
  8
Layer 1
 62
   250
370
     9
100
AcDbLine
 10
129.0883231395878
 20
154.4323764230448
 30
0.0
 11
129.0883231395878
 21
154.4323764230448
 31
0.0
  0
LINE
  5
11D
330
70
100
AcDbEntity
  8
Layer 1
 62
   250
370
     9
100
AcDbLine
 10
129.4441764110697
 20
154.7883897724713
 30
0.0
 11
129.4441764110697
 21
154.7883897724713
 31
0.0
  0
LINE
  5
11E
330
70
100
AcDbEntity
  8
Layer 1
 62
   250
370
     9
100
AcDbLine
 10
129.8000337334265
 20
155.1442430439531
 30
0.0
 11
129.8000337334265
 21
155.1442430439531
 31
0.0
  0
LINE
  5
11F
330
70
100
AcDbEntity
  8
Layer 1
 62
   250
370
     9
100
AcDbLine
 10
130.1558429345471
 20
155.5000562959487
 30
0.0
 11
130.1558429345471
 21
155.5000562959487
 31
0.0
  0
LINE
  5
120
330
70
100
AcDbEntity
  8
Layer 1
 62
   250
370
     9
100
AcDbLine
 10
130.511696206029
 20
155.8559095674305
 30
0.0
 11
130.511696206029
 21
155.8559095674305
 31
0.0
  0
LINE
  5
121
330
70
100
AcDbEntity
  8
Layer 1
 62
   250
370
     9
100
AcDbLine
 10
130.8675094580246
 20
156.2117628389123
 30
0.0
 11
130.8675094580246
 21
156.2117628389123
 31
0.0
  0
LINE
  5
122
330
70
100
AcDbEntity
  8
Layer 1
 62
   250
370
     9
100
AcDbLine
 10
131.2235628269372
 20
156.567576090908
 30
0.0
 11
131.2235628269372
 21
156.567576090908
 31
0.0
  0
LINE
  5
123
330
70
100
AcDbEntity
  8
Layer 1
 62
   250
370
     9
100
AcDbLine
 10
128.5408165485913
 20
153.2004965981735
 30
0.0
 11
128.5408165485913
 21
153.2004965981735
 31
0.0
  0
LINE
  5
124
330
70
100
AcDbEntity
  8
Layer 1
 62
   250
370
     9
100
AcDbLine
 10
128.8966298005869
 20
153.556349869655
 30
0.0
 11
128.8966298005869
 21
153.556349869655
 31
0.0
  0
LINE
  5
125
330
70
100
AcDbEntity
  8
Layer 1
 62
   250
370
     9
100
AcDbLine
 10
129.2524830720684
 20
153.9123632190824
 30
0.0
 11
129.2524830720684
 21
153.9123632190824
 31
0.0
  0
LINE
  5
126
330
70
100
AcDbEntity
  8
Layer 1
 62
   250
370
     9
100
AcDbLine
 10
129.6084964214955
 20
154.2682164905639
 30
0.0
 11
129.6084964214955
 21
154.2682164905639
 31
0.0
  0
LINE
  5
127
330
70
100
AcDbEntity
  8
Layer 1
 62
   250
370
     9
100
AcDbLine
 10
129.9915229241216
 20
154.6240697620454
 30
0.0
 11
129.9915229241216
 21
154.6240697620454
 31
0.0
  0
LINE
  5
128
330
70
100
AcDbEntity
  8
Layer 1
 62
   250
370
     9
100
AcDbLine
 10
130.347536273548
 20
154.9798830140414
 30
0.0
 11
130.347536273548
 21
154.9798830140414
 31
0.0
  0
LINE
  5
129
330
70
100
AcDbEntity
  8
Layer 1
 62
   250
370
     9
100
AcDbLine
 10
130.7033895450302
 20
155.3357362855232
 30
0.0
 11
130.7033895450302
 21
155.3357362855232
 31
0.0
  0
LINE
  5
12A
330
70
100
AcDbEntity
  8
Layer 1
 62
   250
370
     9
100
AcDbLine
 10
131.0592027970258
 20
155.6915495375185
 30
0.0
 11
131.0592027970258
 21
155.6915495375185
 31
0.0
  0
LINE
  5
12B
330
70
100
AcDbEntity
  8
Layer 1
 62
   250
370
     9
100
AcDbLine
 10
131.4150560685076
 20
156.0474028090007
 30
0.0
 11
131.4150560685076
 21
156.0474028090007
 31
0.0
  0
LINE
  5
12C
330
70
100
AcDbEntity
  8
Layer 1
 62
   250
370
     9
100
AcDbLine
 10
128.3764565186796
 20
152.2973368331259
 30
0.0
 11
128.3764565186796
 21
152.2973368331259
 31
0.0
  0
LINE
  5
12D
330
70
100
AcDbEntity
  8
Layer 1
 62
   250
370
     9
100
AcDbLine
 10
128.7325098875925
 20
152.6531901046078
 30
0.0
 11
128.7325098875925
 21
152.6531901046078
 31
0.0
  0
LINE
  5
12E
330
70
100
AcDbEntity
  8
Layer 1
 62
   250
370
     9
100
AcDbLine
 10
129.0883231395878
 20
153.0090033566037
 30
0.0
 11
129.0883231395878
 21
153.0090033566037
 31
0.0
  0
LINE
  5
12F
330
70
100
AcDbEntity
  8
Layer 1
 62
   250
370
     9
100
AcDbLine
 10
129.4441764110697
 20
153.3648606867443
 30
0.0
 11
129.4441764110697
 21
153.3648606867443
 31
0.0
  0
LINE
  5
130
330
70
100
AcDbEntity
  8
Layer 1
 62
   250
370
     9
100
AcDbLine
 10
129.8000337334265
 20
153.7206698800809
 30
0.0
 11
129.8000337334265
 21
153.7206698800809
 31
0.0
  0
LINE
  5
131
330
70
100
AcDbEntity
  8
Layer 1
 62
   250
370
     9
100
AcDbLine
 10
130.1558429345471
 20
154.0765231515627
 30
0.0
 11
130.1558429345471
 21
154.0765231515627
 31
0.0
  0
LINE
  5
132
330
70
100
AcDbEntity
  8
Layer 1
 62
   250
370
     9
100
AcDbLine
 10
130.511696206029
 20
154.4323764230448
 30
0.0
 11
130.511696206029
 21
154.4323764230448
 31
0.0
  0
LINE
  5
133
330
70
100
AcDbEntity
  8
Layer 1
 62
   250
370
     9
100
AcDbLine
 10
130.8675094580246
 20
154.7883897724713
 30
0.0
 11
130.8675094580246
 21
154.7883897724713
 31
0.0
  0
LINE
  5
134
330
70
100
AcDbEntity
  8
Layer 1
 62
   250
370
     9
100
AcDbLine
 10
131.2235628269372
 20
155.1442430439531
 30
0.0
 11
131.2235628269372
 21
155.1442430439531
 31
0.0
  0
LINE
  5
135
330
70
100
AcDbEntity
  8
Layer 1
 62
   250
370
     9
100
AcDbLine
 10
128.5408165485913
 20
151.7497902226432
 30
0.0
 11
128.5408165485913
 21
151.7497902226432
 31
0.0
  0
LINE
  5
136
330
70
100
AcDbEntity
  8
Layer 1
 62
   250
370
     9
100
AcDbLine
 10
128.8966298005869
 20
152.105643494125
 30
0.0
 11
128.8966298005869
 21
152.105643494125
 31
0.0
  0
LINE
  5
137
330
70
100
AcDbEntity
  8
Layer 1
 62
   250
370
     9
100
AcDbLine
 10
129.2524830720684
 20
152.4614967656068
 30
0.0
 11
129.2524830720684
 21
152.4614967656068
 31
0.0
  0
LINE
  5
138
330
70
100
AcDbEntity
  8
Layer 1
 62
   250
370
     9
100
AcDbLine
 10
129.6084964214955
 20
152.8173100176025
 30
0.0
 11
129.6084964214955
 21
152.8173100176025
 31
0.0
  0
LINE
  5
139
330
70
100
AcDbEntity
  8
Layer 1
 62
   250
370
     9
100
AcDbLine
 10
129.9915229241216
 20
153.2004965981735
 30
0.0
 11
129.9915229241216
 21
153.2004965981735
 31
0.0
  0
LINE
  5
13A
330
70
100
AcDbEntity
  8
Layer 1
 62
   250
370
     9
100
AcDbLine
 10
130.347536273548
 20
153.556349869655
 30
0.0
 11
130.347536273548
 21
153.556349869655
 31
0.0
  0
LINE
  5
13B
330
70
100
AcDbEntity
  8
Layer 1
 62
   250
370
     9
100
AcDbLine
 10
130.7033895450302
 20
153.9123632190824
 30
0.0
 11
130.7033895450302
 21
153.9123632190824
 31
0.0
  0
LINE
  5
13C
330
70
100
AcDbEntity
  8
Layer 1
 62
   250
370
     9
100
AcDbLine
 10
131.0592027970258
 20
154.2682164905639
 30
0.0
 11
131.0592027970258
 21
154.2682164905639
 31
0.0
  0
LINE
  5
13D
330
70
100
AcDbEntity
  8
Layer 1
 62
   250
370
     9
100
AcDbLine
 10
131.4150560685076
 20
154.6240697620454
 30
0.0
 11
131.4150560685076
 21
154.6240697620454
 31
0.0
  0
LINE
  5
13E
330
70
100
AcDbEntity
  8
Layer 1
 62
   250
370
     9
100
AcDbLine
 10
128.3764565186796
 20
150.8738036887405
 30
0.0
 11
128.3764565186796
 21
150.8738036887405
 31
0.0
  0
LINE
  5
13F
330
70
100
AcDbEntity
  8
Layer 1
 62
   250
370
     9
100
AcDbLine
 10
128.7325098875925
 20
151.2296169407355
 30
0.0
 11
128.7325098875925
 21
151.2296169407355
 31
0.0
  0
LINE
  5
140
330
70
100
AcDbEntity
  8
Layer 1
 62
   250
370
     9
100
AcDbLine
 10
129.0883231395878
 20
151.5854702122173
 30
0.0
 11
129.0883231395878
 21
151.5854702122173
 31
0.0
  0
LINE
  5
141
330
70
100
AcDbEntity
  8
Layer 1
 62
   250
370
     9
100
AcDbLine
 10
129.4441764110697
 20
151.9413234836995
 30
0.0
 11
129.4441764110697
 21
151.9413234836995
 31
0.0
  0
LINE
  5
142
330
70
100
AcDbEntity
  8
Layer 1
 62
   250
370
     9
100
AcDbLine
 10
129.8000337334265
 20
152.2973368331259
 30
0.0
 11
129.8000337334265
 21
152.2973368331259
 31
0.0
  0
LINE
  5
143
330
70
100
AcDbEntity
  8
Layer 1
 62
   250
370
     9
100
AcDbLine
 10
130.1558429345471
 20
152.6531901046078
 30
0.0
 11
130.1558429345471
 21
152.6531901046078
 31
0.0
  0
LINE
  5
144
330
70
100
AcDbEntity
  8
Layer 1
 62
   250
370
     9
100
AcDbLine
 10
130.511696206029
 20
153.0090033566037
 30
0.0
 11
130.511696206029
 21
153.0090033566037
 31
0.0
  0
LINE
  5
145
330
70
100
AcDbEntity
  8
Layer 1
 62
   250
370
     9
100
AcDbLine
 10
130.8675094580246
 20
153.3648606867443
 30
0.0
 11
130.8675094580246
 21
153.3648606867443
 31
0.0
  0
LINE
  5
146
330
70
100
AcDbEntity
  8
Layer 1
 62
   250
370
     9
100
AcDbLine
 10
131.2235628269372
 20
153.7206698800809
 30
0.0
 11
131.2235628269372
 21
153.7206698800809
 31
0.0
  0
LINE
  5
147
330
70
100
AcDbEntity
  8
Layer 1
 62
   250
370
     9
100
AcDbLine
 10
128.5408165485913
 20
150.3262570782575
 30
0.0
 11
128.5408165485913
 21
150.3262570782575
 31
0.0
  0
LINE
  5
148
330
70
100
AcDbEntity
  8
Layer 1
 62
   250
370
     9
100
AcDbLine
 10
128.8966298005869
 20
150.6823104471701
 30
0.0
 11
128.8966298005869
 21
150.6823104471701
 31
0.0
  0
LINE
  5
149
330
70
100
AcDbEntity
  8
Layer 1
 62
   250
370
     9
100
AcDbLine
 10
129.2524830720684
 20
151.0381276990472
 30
0.0
 11
129.2524830720684
 21
151.0381276990472
 31
0.0
  0
LINE
  5
14A
330
70
100
AcDbEntity
  8
Layer 1
 62
   250
370
     9
100
AcDbLine
 10
129.6084964214955
 20
151.3939769706476
 30
0.0
 11
129.6084964214955
 21
151.3939769706476
 31
0.0
  0
LINE
  5
14B
330
70
100
AcDbEntity
  8
Layer 1
 62
   250
370
     9
100
AcDbLine
 10
129.9915229241216
 20
151.7497902226432
 30
0.0
 11
129.9915229241216
 21
151.7497902226432
 31
0.0
  0
LINE
  5
14C
330
70
100
AcDbEntity
  8
Layer 1
 62
   250
370
     9
100
AcDbLine
 10
130.347536273548
 20
152.105643494125
 30
0.0
 11
130.347536273548
 21
152.105643494125
 31
0.0
  0
LINE
  5
14D
330
70
100
AcDbEntity
  8
Layer 1
 62
   250
370
     9
100
AcDbLine
 10
130.7033895450302
 20
152.4614967656068
 30
0.0
 11
130.7033895450302
 21
152.4614967656068
 31
0.0
  0
LINE
  5
14E
330
70
100
AcDbEntity
  8
Layer 1
 62
   250
370
     9
100
AcDbLine
 10
131.0592027970258
 20
152.8173100176025
 30
0.0
 11
131.0592027970258
 21
152.8173100176025
 31
0.0
  0
LINE
  5
14F
330
70
100
AcDbEntity
  8
Layer 1
 62
   250
370
     9
100
AcDbLine
 10
131.4150560685076
 20
153.2004965981735
 30
0.0
 11
131.4150560685076
 21
153.2004965981735
 31
0.0
  0
LINE
  5
150
330
70
100
AcDbEntity
  8
Layer 1
 62
   250
370
     9
100
AcDbLine
 10
128.3764565186796
 20
149.4504306222991
 30
0.0
 11
128.3764565186796
 21
149.4504306222991
 31
0.0
  0
LINE
  5
151
330
70
100
AcDbEntity
  8
Layer 1
 62
   250
370
     9
100
AcDbLine
 10
128.7325098875925
 20
149.8062838937809
 30
0.0
 11
128.7325098875925
 21
149.8062838937809
 31
0.0
  0
LINE
  5
152
330
70
100
AcDbEntity
  8
Layer 1
 62
   250
370
     9
100
AcDbLine
 10
129.0883231395878
 20
150.1622972432073
 30
0.0
 11
129.0883231395878
 21
150.1622972432073
 31
0.0
  0
LINE
  5
153
330
70
100
AcDbEntity
  8
Layer 1
 62
   250
370
     9
100
AcDbLine
 10
129.4441764110697
 20
150.5181505146891
 30
0.0
 11
129.4441764110697
 21
150.5181505146891
 31
0.0
  0
LINE
  5
154
330
70
100
AcDbEntity
  8
Layer 1
 62
   250
370
     9
100
AcDbLine
 10
129.8000337334265
 20
150.8738036887405
 30
0.0
 11
129.8000337334265
 21
150.8738036887405
 31
0.0
  0
LINE
  5
155
330
70
100
AcDbEntity
  8
Layer 1
 62
   250
370
     9
100
AcDbLine
 10
130.1558429345471
 20
151.2296169407355
 30
0.0
 11
130.1558429345471
 21
151.2296169407355
 31
0.0
  0
LINE
  5
156
330
70
100
AcDbEntity
  8
Layer 1
 62
   250
370
     9
100
AcDbLine
 10
130.511696206029
 20
151.5854702122173
 30
0.0
 11
130.511696206029
 21
151.5854702122173
 31
0.0
  0
LINE
  5
157
330
70
100
AcDbEntity
  8
Layer 1
 62
   250
370
     9
100
AcDbLine
 10
130.8675094580246
 20
151.9413234836995
 30
0.0
 11
130.8675094580246
 21
151.9413234836995
 31
0.0
  0
LINE
  5
158
330
70
100
AcDbEntity
  8
Layer 1
 62
   250
370
     9
100
AcDbLine
 10
131.2235628269372
 20
152.2973368331259
 30
0.0
 11
131.2235628269372
 21
152.2973368331259
 31
0.0
  0
LINE
  5
159
330
70
100
AcDbEntity
  8
Layer 1
 62
   250
370
     9
100
AcDbLine
 10
128.5408165485913
 20
148.9031241287336
 30
0.0
 11
128.5408165485913
 21
148.9031241287336
 31
0.0
  0
LINE
  5
15A
330
70
100
AcDbEntity
  8
Layer 1
 62
   250
370
     9
100
AcDbLine
 10
128.8966298005869
 20
149.258937380729
 30
0.0
 11
128.8966298005869
 21
149.258937380729
 31
0.0
  0
LINE
  5
15B
330
70
100
AcDbEntity
  8
Layer 1
 62
   250
370
     9
100
AcDbLine
 10
129.2524830720684
 20
149.6145905547797
 30
0.0
 11
129.2524830720684
 21
149.6145905547797
 31
0.0
  0
LINE
  5
15C
330
70
100
AcDbEntity
  8
Layer 1
 62
   250
370
     9
100
AcDbLine
 10
129.6084964214955
 20
149.9704438262618
 30
0.0
 11
129.6084964214955
 21
149.9704438262618
 31
0.0
  0
LINE
  5
15D
330
70
100
AcDbEntity
  8
Layer 1
 62
   250
370
     9
100
AcDbLine
 10
129.9915229241216
 20
150.3262570782575
 30
0.0
 11
129.9915229241216
 21
150.3262570782575
 31
0.0
  0
LINE
  5
15E
330
70
100
AcDbEntity
  8
Layer 1
 62
   250
370
     9
100
AcDbLine
 10
130.347536273548
 20
150.6823104471701
 30
0.0
 11
130.347536273548
 21
150.6823104471701
 31
0.0
  0
LINE
  5
15F
330
70
100
AcDbEntity
  8
Layer 1
 62
   250
370
     9
100
AcDbLine
 10
130.7033895450302
 20
151.0381276990472
 30
0.0
 11
130.7033895450302
 21
151.0381276990472
 31
0.0
  0
LINE
  5
160
330
70
100
AcDbEntity
  8
Layer 1
 62
   250
370
     9
100
AcDbLine
 10
131.0592027970258
 20
151.3939769706476
 30
0.0
 11
131.0592027970258
 21
151.3939769706476
 31
0.0
  0
LINE
  5
161
330
70
100
AcDbEntity
  8
Layer 1
 62
   250
370
     9
100
AcDbLine
 10
131.4150560685076
 20
151.7497902226432
 30
0.0
 11
131.4150560685076
 21
151.7497902226432
 31
0.0
  0
LINE
  5
162
330
70
100
AcDbEntity
  8
Layer 1
 62
   250
370
     9
100
AcDbLine
 10
128.3764565186796
 20
147.9997242467685
 30
0.0
 11
128.3764565186796
 21
147.9997242467685
 31
0.0
  0
LINE
  5
163
330
70
100
AcDbEntity
  8
Layer 1
 62
   250
370
     9
100
AcDbLine
 10
128.7325098875925
 20
148.3555775182503
 30
0.0
 11
128.7325098875925
 21
148.3555775182503
 31
0.0
  0
LINE
  5
164
330
70
100
AcDbEntity
  8
Layer 1
 62
   250
370
     9
100
AcDbLine
 10
129.0883231395878
 20
148.7112306923013
 30
0.0
 11
129.0883231395878
 21
148.7112306923013
 31
0.0
  0
LINE
  5
165
330
70
100
AcDbEntity
  8
Layer 1
 62
   250
370
     9
100
AcDbLine
 10
129.4441764110697
 20
149.0946173703038
 30
0.0
 11
129.4441764110697
 21
149.0946173703038
 31
0.0
  0
LINE
  5
166
330
70
100
AcDbEntity
  8
Layer 1
 62
   250
370
     9
100
AcDbLine
 10
129.8000337334265
 20
149.4504306222991
 30
0.0
 11
129.8000337334265
 21
149.4504306222991
 31
0.0
  0
LINE
  5
167
330
70
100
AcDbEntity
  8
Layer 1
 62
   250
370
     9
100
AcDbLine
 10
130.1558429345471
 20
149.8062838937809
 30
0.0
 11
130.1558429345471
 21
149.8062838937809
 31
0.0
  0
LINE
  5
168
330
70
100
AcDbEntity
  8
Layer 1
 62
   250
370
     9
100
AcDbLine
 10
130.511696206029
 20
150.1622972432073
 30
0.0
 11
130.511696206029
 21
150.1622972432073
 31
0.0
  0
LINE
  5
169
330
70
100
AcDbEntity
  8
Layer 1
 62
   250
370
     9
100
AcDbLine
 10
130.8675094580246
 20
150.5181505146891
 30
0.0
 11
130.8675094580246
 21
150.5181505146891
 31
0.0
  0
LINE
  5
16A
330
70
100
AcDbEntity
  8
Layer 1
 62
   250
370
     9
100
AcDbLine
 10
131.2235628269372
 20
150.8738036887405
 30
0.0
 11
131.2235628269372
 21
150.8738036887405
 31
0.0
  0
LINE
  5
16B
330
70
100
AcDbEntity
  8
Layer 1
 62
   250
370
     9
100
AcDbLine
 10
128.5408165485913
 20
147.4795509648611
 30
0.0
 11
128.5408165485913
 21
147.4795509648611
 31
0.0
  0
LINE
  5
16C
330
70
100
AcDbEntity
  8
Layer 1
 62
   250
370
     9
100
AcDbLine
 10
128.8966298005869
 20
147.8354042363429
 30
0.0
 11
128.8966298005869
 21
147.8354042363429
 31
0.0
  0
LINE
  5
16D
330
70
100
AcDbEntity
  8
Layer 1
 62
   250
370
     9
100
AcDbLine
 10
129.2524830720684
 20
148.1912575078244
 30
0.0
 11
129.2524830720684
 21
148.1912575078244
 31
0.0
  0
LINE
  5
16E
330
70
100
AcDbEntity
  8
Layer 1
 62
   250
370
     9
100
AcDbLine
 10
129.6084964214955
 20
148.5472708572515
 30
0.0
 11
129.6084964214955
 21
148.5472708572515
 31
0.0
  0
LINE
  5
16F
330
70
100
AcDbEntity
  8
Layer 1
 62
   250
370
     9
100
AcDbLine
 10
129.9915229241216
 20
148.9031241287336
 30
0.0
 11
129.9915229241216
 21
148.9031241287336
 31
0.0
  0
LINE
  5
170
330
70
100
AcDbEntity
  8
Layer 1
 62
   250
370
     9
100
AcDbLine
 10
130.347536273548
 20
149.258937380729
 30
0.0
 11
130.347536273548
 21
149.258937380729
 31
0.0
  0
LINE
  5
171
330
70
100
AcDbEntity
  8
Layer 1
 62
   250
370
     9
100
AcDbLine
 10
130.7033895450302
 20
149.6145905547797
 30
0.0
 11
130.7033895450302
 21
149.6145905547797
 31
0.0
  0
LINE
  5
172
330
70
100
AcDbEntity
  8
Layer 1
 62
   250
370
     9
100
AcDbLine
 10
131.0592027970258
 20
149.9704438262618
 30
0.0
 11
131.0592027970258
 21
149.9704438262618
 31
0.0
  0
LINE
  5
173
330
70
100
AcDbEntity
  8
Layer 1
 62
   250
370
     9
100
AcDbLine
 10
131.4150560685076
 20
150.3262570782575
 30
0.0
 11
131.4150560685076
 21
150.3262570782575
 31
0.0
  0
LINE
  5
174
330
70
100
AcDbEntity
  8
Layer 1
 62
   250
370
     9
100
AcDbLine
 10
128.3764565186796
 20
146.5761911023827
 30
0.0
 11
128.3764565186796
 21
146.5761911023827
 31
0.0
  0
LINE
  5
175
330
70
100
AcDbEntity
  8
Layer 1
 62
   250
370
     9
100
AcDbLine
 10
128.7325098875925
 20
146.9322444712957
 30
0.0
 11
128.7325098875925
 21
146.9322444712957
 31
0.0
  0
LINE
  5
176
330
70
100
AcDbEntity
  8
Layer 1
 62
   250
370
     9
100
AcDbLine
 10
129.0883231395878
 20
147.2880577232913
 30
0.0
 11
129.0883231395878
 21
147.2880577232913
 31
0.0
  0
LINE
  5
177
330
70
100
AcDbEntity
  8
Layer 1
 62
   250
370
     9
100
AcDbLine
 10
129.4441764110697
 20
147.6439109947731
 30
0.0
 11
129.4441764110697
 21
147.6439109947731
 31
0.0
  0
LINE
  5
178
330
70
100
AcDbEntity
  8
Layer 1
 62
   250
370
     9
100
AcDbLine
 10
129.8000337334265
 20
147.9997242467685
 30
0.0
 11
129.8000337334265
 21
147.9997242467685
 31
0.0
  0
LINE
  5
179
330
70
100
AcDbEntity
  8
Layer 1
 62
   250
370
     9
100
AcDbLine
 10
130.1558429345471
 20
148.3555775182503
 30
0.0
 11
130.1558429345471
 21
148.3555775182503
 31
0.0
  0
LINE
  5
17A
330
70
100
AcDbEntity
  8
Layer 1
 62
   250
370
     9
100
AcDbLine
 10
130.511696206029
 20
148.7112306923013
 30
0.0
 11
130.511696206029
 21
148.7112306923013
 31
0.0
  0
LINE
  5
17B
330
70
100
AcDbEntity
  8
Layer 1
 62
   250
370
     9
100
AcDbLine
 10
130.8675094580246
 20
149.0946173703038
 30
0.0
 11
130.8675094580246
 21
149.0946173703038
 31
0.0
  0
LINE
  5
17C
330
70
100
AcDbEntity
  8
Layer 1
 62
   250
370
     9
100
AcDbLine
 10
131.2235628269372
 20
149.4504306222991
 30
0.0
 11
131.2235628269372
 21
149.4504306222991
 31
0.0
  0
LINE
  5
17D
330
70
100
AcDbEntity
  8
Layer 1
 62
   250
370
     9
100
AcDbLine
 10
128.5408165485913
 20
146.0562179179065
 30
0.0
 11
128.5408165485913
 21
146.0562179179065
 31
0.0
  0
LINE
  5
17E
330
70
100
AcDbEntity
  8
Layer 1
 62
   250
370
     9
100
AcDbLine
 10
128.8966298005869
 20
146.4120311699022
 30
0.0
 11
128.8966298005869
 21
146.4120311699022
 31
0.0
  0
LINE
  5
17F
330
70
100
AcDbEntity
  8
Layer 1
 62
   250
370
     9
100
AcDbLine
 10
129.2524830720684
 20
146.7678844413843
 30
0.0
 11
129.2524830720684
 21
146.7678844413843
 31
0.0
  0
LINE
  5
180
330
70
100
AcDbEntity
  8
Layer 1
 62
   250
370
     9
100
AcDbLine
 10
129.6084964214955
 20
147.1237377128658
 30
0.0
 11
129.6084964214955
 21
147.1237377128658
 31
0.0
  0
LINE
  5
181
330
70
100
AcDbEntity
  8
Layer 1
 62
   250
370
     9
100
AcDbLine
 10
129.9915229241216
 20
147.4795509648611
 30
0.0
 11
129.9915229241216
 21
147.4795509648611
 31
0.0
  0
LINE
  5
182
330
70
100
AcDbEntity
  8
Layer 1
 62
   250
370
     9
100
AcDbLine
 10
130.347536273548
 20
147.8354042363429
 30
0.0
 11
130.347536273548
 21
147.8354042363429
 31
0.0
  0
LINE
  5
183
330
70
100
AcDbEntity
  8
Layer 1
 62
   250
370
     9
100
AcDbLine
 10
130.7033895450302
 20
148.1912575078244
 30
0.0
 11
130.7033895450302
 21
148.1912575078244
 31
0.0
  0
LINE
  5
184
330
70
100
AcDbEntity
  8
Layer 1
 62
   250
370
     9
100
AcDbLine
 10
131.0592027970258
 20
148.5472708572515
 30
0.0
 11
131.0592027970258
 21
148.5472708572515
 31
0.0
  0
LINE
  5
185
330
70
100
AcDbEntity
  8
Layer 1
 62
   250
370
     9
100
AcDbLine
 10
131.4150560685076
 20
148.9031241287336
 30
0.0
 11
131.4150560685076
 21
148.9031241287336
 31
0.0
  0
LINE
  5
186
330
70
100
AcDbEntity
  8
Layer 1
 62
   250
370
     9
100
AcDbLine
 10
128.3764565186796
 20
145.1528619066346
 30
0.0
 11
128.3764565186796
 21
145.1528619066346
 31
0.0
  0
LINE
  5
187
330
70
100
AcDbEntity
  8
Layer 1
 62
   250
370
     9
100
AcDbLine
 10
128.7325098875925
 20
145.5086713074234
 30
0.0
 11
128.7325098875925
 21
145.5086713074234
 31
0.0
  0
LINE
  5
188
330
70
100
AcDbEntity
  8
Layer 1
 62
   250
370
     9
100
AcDbLine
 10
129.0883231395878
 20
145.8645245789053
 30
0.0
 11
129.0883231395878
 21
145.8645245789053
 31
0.0
  0
LINE
  5
189
330
70
100
AcDbEntity
  8
Layer 1
 62
   250
370
     9
100
AcDbLine
 10
129.4441764110697
 20
146.2203378309009
 30
0.0
 11
129.4441764110697
 21
146.2203378309009
 31
0.0
  0
LINE
  5
18A
330
70
100
AcDbEntity
  8
Layer 1
 62
   250
370
     9
100
AcDbLine
 10
129.8000337334265
 20
146.5761911023827
 30
0.0
 11
129.8000337334265
 21
146.5761911023827
 31
0.0
  0
LINE
  5
18B
330
70
100
AcDbEntity
  8
Layer 1
 62
   250
370
     9
100
AcDbLine
 10
130.1558429345471
 20
146.9322444712957
 30
0.0
 11
130.1558429345471
 21
146.9322444712957
 31
0.0
  0
LINE
  5
18C
330
70
100
AcDbEntity
  8
Layer 1
 62
   250
370
     9
100
AcDbLine
 10
130.511696206029
 20
147.2880577232913
 30
0.0
 11
130.511696206029
 21
147.2880577232913
 31
0.0
  0
LINE
  5
18D
330
70
100
AcDbEntity
  8
Layer 1
 62
   250
370
     9
100
AcDbLine
 10
130.8675094580246
 20
147.6439109947731
 30
0.0
 11
130.8675094580246
 21
147.6439109947731
 31
0.0
  0
LINE
  5
18E
330
70
100
AcDbEntity
  8
Layer 1
 62
   250
370
     9
100
AcDbLine
 10
131.2235628269372
 20
147.9997242467685
 30
0.0
 11
131.2235628269372
 21
147.9997242467685
 31
0.0
  0
LINE
  5
18F
330
70
100
AcDbEntity
  8
Layer 1
 62
   250
370
     9
100
AcDbLine
 10
128.5408165485913
 20
144.6053114449448
 30
0.0
 11
128.5408165485913
 21
144.6053114449448
 31
0.0
  0
LINE
  5
190
330
70
100
AcDbEntity
  8
Layer 1
 62
   250
370
     9
100
AcDbLine
 10
128.8966298005869
 20
144.9611685627908
 30
0.0
 11
128.8966298005869
 21
144.9611685627908
 31
0.0
  0
LINE
  5
191
330
70
100
AcDbEntity
  8
Layer 1
 62
   250
370
     9
100
AcDbLine
 10
129.2524830720684
 20
145.3443512969982
 30
0.0
 11
129.2524830720684
 21
145.3443512969982
 31
0.0
  0
LINE
  5
192
330
70
100
AcDbEntity
  8
Layer 1
 62
   250
370
     9
100
AcDbLine
 10
129.6084964214955
 20
145.7001645489933
 30
0.0
 11
129.6084964214955
 21
145.7001645489933
 31
0.0
  0
LINE
  5
193
330
70
100
AcDbEntity
  8
Layer 1
 62
   250
370
     9
100
AcDbLine
 10
129.9915229241216
 20
146.0562179179065
 30
0.0
 11
129.9915229241216
 21
146.0562179179065
 31
0.0
  0
LINE
  5
194
330
70
100
AcDbEntity
  8
Layer 1
 62
   250
370
     9
100
AcDbLine
 10
130.347536273548
 20
146.4120311699022
 30
0.0
 11
130.347536273548
 21
146.4120311699022
 31
0.0
  0
LINE
  5
195
330
70
100
AcDbEntity
  8
Layer 1
 62
   250
370
     9
100
AcDbLine
 10
130.7033895450302
 20
146.7678844413843
 30
0.0
 11
130.7033895450302
 21
146.7678844413843
 31
0.0
  0
LINE
  5
196
330
70
100
AcDbEntity
  8
Layer 1
 62
   250
370
     9
100
AcDbLine
 10
131.0592027970258
 20
147.1237377128658
 30
0.0
 11
131.0592027970258
 21
147.1237377128658
 31
0.0
  0
LINE
  5
197
330
70
100
AcDbEntity
  8
Layer 1
 62
   250
370
     9
100
AcDbLine
 10
131.4150560685076
 20
147.4795509648611
 30
0.0
 11
131.4150560685076
 21
147.4795509648611
 31
0.0
  0
LINE
  5
198
330
70
100
AcDbEntity
  8
Layer 1
 62
   250
370
     9
100
AcDbLine
 10
128.3764565186796
 20
143.7292848915559
 30
0.0
 11
128.3764565186796
 21
143.7292848915559
 31
0.0
  0
LINE
  5
199
330
70
100
AcDbEntity
  8
Layer 1
 62
   250
370
     9
100
AcDbLine
 10
128.7325098875925
 20
144.0851419872711
 30
0.0
 11
128.7325098875925
 21
144.0851419872711
 31
0.0
  0
LINE
  5
19A
330
70
100
AcDbEntity
  8
Layer 1
 62
   250
370
     9
100
AcDbLine
 10
129.0883231395878
 20
144.4411515124642
 30
0.0
 11
129.0883231395878
 21
144.4411515124642
 31
0.0
  0
LINE
  5
19B
330
70
100
AcDbEntity
  8
Layer 1
 62
   250
370
     9
100
AcDbLine
 10
129.4441764110697
 20
144.7970047839463
 30
0.0
 11
129.4441764110697
 21
144.7970047839463
 31
0.0
  0
LINE
  5
19C
330
70
100
AcDbEntity
  8
Layer 1
 62
   250
370
     9
100
AcDbLine
 10
129.8000337334265
 20
145.1528619066346
 30
0.0
 11
129.8000337334265
 21
145.1528619066346
 31
0.0
  0
LINE
  5
19D
330
70
100
AcDbEntity
  8
Layer 1
 62
   250
370
     9
100
AcDbLine
 10
130.1558429345471
 20
145.5086713074234
 30
0.0
 11
130.1558429345471
 21
145.5086713074234
 31
0.0
  0
LINE
  5
19E
330
70
100
AcDbEntity
  8
Layer 1
 62
   250
370
     9
100
AcDbLine
 10
130.511696206029
 20
145.8645245789053
 30
0.0
 11
130.511696206029
 21
145.8645245789053
 31
0.0
  0
LINE
  5
19F
330
70
100
AcDbEntity
  8
Layer 1
 62
   250
370
     9
100
AcDbLine
 10
130.8675094580246
 20
146.2203378309009
 30
0.0
 11
130.8675094580246
 21
146.2203378309009
 31
0.0
  0
LINE
  5
1A0
330
70
100
AcDbEntity
  8
Layer 1
 62
   250
370
     9
100
AcDbLine
 10
131.2235628269372
 20
146.5761911023827
 30
0.0
 11
131.2235628269372
 21
146.5761911023827
 31
0.0
  0
LINE
  5
1A1
330
70
100
AcDbEntity
  8
Layer 1
 62
   250
370
     9
100
AcDbLine
 10
128.5408165485913
 20
143.1819783979898
 30
0.0
 11
128.5408165485913
 21
143.1819783979898
 31
0.0
  0
LINE
  5
1A2
330
70
100
AcDbEntity
  8
Layer 1
 62
   250
370
     9
100
AcDbLine
 10
128.8966298005869
 20
143.5377916499858
 30
0.0
 11
128.8966298005869
 21
143.5377916499858
 31
0.0
  0
LINE
  5
1A3
330
70
100
AcDbEntity
  8
Layer 1
 62
   250
370
     9
100
AcDbLine
 10
129.2524830720684
 20
143.8936449214673
 30
0.0
 11
129.2524830720684
 21
143.8936449214673
 31
0.0
  0
LINE
  5
1A4
330
70
100
AcDbEntity
  8
Layer 1
 62
   250
370
     9
100
AcDbLine
 10
129.6084964214955
 20
144.2494581734629
 30
0.0
 11
129.6084964214955
 21
144.2494581734629
 31
0.0
  0
LINE
  5
1A5
330
70
100
AcDbEntity
  8
Layer 1
 62
   250
370
     9
100
AcDbLine
 10
129.9915229241216
 20
144.6053114449448
 30
0.0
 11
129.9915229241216
 21
144.6053114449448
 31
0.0
  0
LINE
  5
1A6
330
70
100
AcDbEntity
  8
Layer 1
 62
   250
370
     9
100
AcDbLine
 10
130.347536273548
 20
144.9611685627908
 30
0.0
 11
130.347536273548
 21
144.9611685627908
 31
0.0
  0
LINE
  5
1A7
330
70
100
AcDbEntity
  8
Layer 1
 62
   250
370
     9
100
AcDbLine
 10
130.7033895450302
 20
145.3443512969982
 30
0.0
 11
130.7033895450302
 21
145.3443512969982
 31
0.0
  0
LINE
  5
1A8
330
70
100
AcDbEntity
  8
Layer 1
 62
   250
370
     9
100
AcDbLine
 10
131.0592027970258
 20
145.7001645489933
 30
0.0
 11
131.0592027970258
 21
145.7001645489933
 31
0.0
  0
LINE
  5
1A9
330
70
100
AcDbEntity
  8
Layer 1
 62
   250
370
     9
100
AcDbLine
 10
131.4150560685076
 20
146.0562179179065
 30
0.0
 11
131.4150560685076
 21
146.0562179179065
 31
0.0
  0
LINE
  5
1AA
330
70
100
AcDbEntity
  8
Layer 1
 62
   250
370
     9
100
AcDbLine
 10
128.3764565186796
 20
142.3061519420321
 30
0.0
 11
128.3764565186796
 21
142.3061519420321
 31
0.0
  0
LINE
  5
1AB
330
70
100
AcDbEntity
  8
Layer 1
 62
   250
370
     9
100
AcDbLine
 10
128.7325098875925
 20
142.6618051160825
 30
0.0
 11
128.7325098875925
 21
142.6618051160825
 31
0.0
  0
LINE
  5
1AC
330
70
100
AcDbEntity
  8
Layer 1
 62
   250
370
     9
100
AcDbLine
 10
129.0883231395878
 20
143.0176183680788
 30
0.0
 11
129.0883231395878
 21
143.0176183680788
 31
0.0
  0
LINE
  5
1AD
330
70
100
AcDbEntity
  8
Layer 1
 62
   250
370
     9
100
AcDbLine
 10
129.4441764110697
 20
143.37347163956
 30
0.0
 11
129.4441764110697
 21
143.37347163956
 31
0.0
  0
LINE
  5
1AE
330
70
100
AcDbEntity
  8
Layer 1
 62
   250
370
     9
100
AcDbLine
 10
129.8000337334265
 20
143.7292848915559
 30
0.0
 11
129.8000337334265
 21
143.7292848915559
 31
0.0
  0
LINE
  5
1AF
330
70
100
AcDbEntity
  8
Layer 1
 62
   250
370
     9
100
AcDbLine
 10
130.1558429345471
 20
144.0851419872711
 30
0.0
 11
130.1558429345471
 21
144.0851419872711
 31
0.0
  0
LINE
  5
1B0
330
70
100
AcDbEntity
  8
Layer 1
 62
   250
370
     9
100
AcDbLine
 10
130.511696206029
 20
144.4411515124642
 30
0.0
 11
130.511696206029
 21
144.4411515124642
 31
0.0
  0
LINE
  5
1B1
330
70
100
AcDbEntity
  8
Layer 1
 62
   250
370
     9
100
AcDbLine
 10
130.8675094580246
 20
144.7970047839463
 30
0.0
 11
130.8675094580246
 21
144.7970047839463
 31
0.0
  0
LINE
  5
1B2
330
70
100
AcDbEntity
  8
Layer 1
 62
   250
370
     9
100
AcDbLine
 10
131.2235628269372
 20
145.1528619066346
 30
0.0
 11
131.2235628269372
 21
145.1528619066346
 31
0.0
  0
LINE
  5
1B3
330
70
100
AcDbEntity
  8
Layer 1
 62
   250
370
     9
100
AcDbLine
 10
128.5408165485913
 20
141.7584089995736
 30
0.0
 11
128.5408165485913
 21
141.7584089995736
 31
0.0
  0
LINE
  5
1B4
330
70
100
AcDbEntity
  8
Layer 1
 62
   250
370
     9
100
AcDbLine
 10
128.8966298005869
 20
142.1142585055997
 30
0.0
 11
128.8966298005869
 21
142.1142585055997
 31
0.0
  0
LINE
  5
1B5
330
70
100
AcDbEntity
  8
Layer 1
 62
   250
370
     9
100
AcDbLine
 10
129.2524830720684
 20
142.4701117770815
 30
0.0
 11
129.2524830720684
 21
142.4701117770815
 31
0.0
  0
LINE
  5
1B6
330
70
100
AcDbEntity
  8
Layer 1
 62
   250
370
     9
100
AcDbLine
 10
129.6084964214955
 20
142.8261289189365
 30
0.0
 11
129.6084964214955
 21
142.8261289189365
 31
0.0
  0
LINE
  5
1B7
330
70
100
AcDbEntity
  8
Layer 1
 62
   250
370
     9
100
AcDbLine
 10
129.9915229241216
 20
143.1819783979898
 30
0.0
 11
129.9915229241216
 21
143.1819783979898
 31
0.0
  0
LINE
  5
1B8
330
70
100
AcDbEntity
  8
Layer 1
 62
   250
370
     9
100
AcDbLine
 10
130.347536273548
 20
143.5377916499858
 30
0.0
 11
130.347536273548
 21
143.5377916499858
 31
0.0
  0
LINE
  5
1B9
330
70
100
AcDbEntity
  8
Layer 1
 62
   250
370
     9
100
AcDbLine
 10
130.7033895450302
 20
143.8936449214673
 30
0.0
 11
130.7033895450302
 21
143.8936449214673
 31
0.0
  0
LINE
  5
1BA
330
70
100
AcDbEntity
  8
Layer 1
 62
   250
370
     9
100
AcDbLine
 10
131.0592027970258
 20
144.2494581734629
 30
0.0
 11
131.0592027970258
 21
144.2494581734629
 31
0.0
  0
LINE
  5
1BB
330
70
100
AcDbEntity
  8
Layer 1
 62
   250
370
     9
100
AcDbLine
 10
131.4150560685076
 20
144.6053114449448
 30
0.0
 11
131.4150560685076
 21
144.6053114449448
 31
0.0
  0
LINE
  5
1BC
330
70
100
AcDbEntity
  8
Layer 1
 62
   250
370
     9
100
AcDbLine
 10
128.3764565186796
 20
140.8550453716392
 30
0.0
 11
128.3764565186796
 21
140.8550453716392
 31
0.0
  0
LINE
  5
1BD
330
70
100
AcDbEntity
  8
Layer 1
 62
   250
370
     9
100
AcDbLine
 10
128.7325098875925
 20
141.2110987405521
 30
0.0
 11
128.7325098875925
 21
141.2110987405521
 31
0.0
  0
LINE
  5
1BE
330
70
100
AcDbEntity
  8
Layer 1
 62
   250
370
     9
100
AcDbLine
 10
129.0883231395878
 20
141.5942853211229
 30
0.0
 11
129.0883231395878
 21
141.5942853211229
 31
0.0
  0
LINE
  5
1BF
330
70
100
AcDbEntity
  8
Layer 1
 62
   250
370
     9
100
AcDbLine
 10
129.4441764110697
 20
141.9501023434171
 30
0.0
 11
129.4441764110697
 21
141.9501023434171
 31
0.0
  0
LINE
  5
1C0
330
70
100
AcDbEntity
  8
Layer 1
 62
   250
370
     9
100
AcDbLine
 10
129.8000337334265
 20
142.3061519420321
 30
0.0
 11
129.8000337334265
 21
142.3061519420321
 31
0.0
  0
LINE
  5
1C1
330
70
100
AcDbEntity
  8
Layer 1
 62
   250
370
     9
100
AcDbLine
 10
130.1558429345471
 20
142.6618051160825
 30
0.0
 11
130.1558429345471
 21
142.6618051160825
 31
0.0
  0
LINE
  5
1C2
330
70
100
AcDbEntity
  8
Layer 1
 62
   250
370
     9
100
AcDbLine
 10
130.511696206029
 20
143.0176183680788
 30
0.0
 11
130.511696206029
 21
143.0176183680788
 31
0.0
  0
LINE
  5
1C3
330
70
100
AcDbEntity
  8
Layer 1
 62
   250
370
     9
100
AcDbLine
 10
130.8675094580246
 20
143.37347163956
 30
0.0
 11
130.8675094580246
 21
143.37347163956
 31
0.0
  0
LINE
  5
1C4
330
70
100
AcDbEntity
  8
Layer 1
 62
   250
370
     9
100
AcDbLine
 10
131.2235628269372
 20
143.7292848915559
 30
0.0
 11
131.2235628269372
 21
143.7292848915559
 31
0.0
  0
LINE
  5
1C5
330
70
100
AcDbEntity
  8
Layer 1
 62
   250
370
     9
100
AcDbLine
 10
128.5408165485913
 20
140.335072187163
 30
0.0
 11
128.5408165485913
 21
140.335072187163
 31
0.0
  0
LINE
  5
1C6
330
70
100
AcDbEntity
  8
Layer 1
 62
   250
370
     9
100
AcDbLine
 10
128.8966298005869
 20
140.6910892750825
 30
0.0
 11
128.8966298005869
 21
140.6910892750825
 31
0.0
  0
LINE
  5
1C7
330
70
100
AcDbEntity
  8
Layer 1
 62
   250
370
     9
100
AcDbLine
 10
129.2524830720684
 20
141.0469388080713
 30
0.0
 11
129.2524830720684
 21
141.0469388080713
 31
0.0
  0
LINE
  5
1C8
330
70
100
AcDbEntity
  8
Layer 1
 62
   250
370
     9
100
AcDbLine
 10
129.6084964214955
 20
141.4025919821223
 30
0.0
 11
129.6084964214955
 21
141.4025919821223
 31
0.0
  0
LINE
  5
1C9
330
70
100
AcDbEntity
  8
Layer 1
 62
   250
370
     9
100
AcDbLine
 10
129.9915229241216
 20
141.7584089995736
 30
0.0
 11
129.9915229241216
 21
141.7584089995736
 31
0.0
  0
LINE
  5
1CA
330
70
100
AcDbEntity
  8
Layer 1
 62
   250
370
     9
100
AcDbLine
 10
130.347536273548
 20
142.1142585055997
 30
0.0
 11
130.347536273548
 21
142.1142585055997
 31
0.0
  0
LINE
  5
1CB
330
70
100
AcDbEntity
  8
Layer 1
 62
   250
370
     9
100
AcDbLine
 10
130.7033895450302
 20
142.4701117770815
 30
0.0
 11
130.7033895450302
 21
142.4701117770815
 31
0.0
  0
LINE
  5
1CC
330
70
100
AcDbEntity
  8
Layer 1
 62
   250
370
     9
100
AcDbLine
 10
131.0592027970258
 20
142.8261289189365
 30
0.0
 11
131.0592027970258
 21
142.8261289189365
 31
0.0
  0
LINE
  5
1CD
330
70
100
AcDbEntity
  8
Layer 1
 62
   250
370
     9
100
AcDbLine
 10
131.4150560685076
 20
143.1819783979898
 30
0.0
 11
131.4150560685076
 21
143.1819783979898
 31
0.0
  0
LINE
  5
1CE
330
70
100
AcDbEntity
  8
Layer 1
 62
   250
370
     9
100
AcDbLine
 10
128.3764565186796
 20
139.4319124221157
 30
0.0
 11
128.3764565186796
 21
139.4319124221157
 31
0.0
  0
LINE
  5
1CF
330
70
100
AcDbEntity
  8
Layer 1
 62
   250
370
     9
100
AcDbLine
 10
128.7325098875925
 20
139.7877256741114
 30
0.0
 11
128.7325098875925
 21
139.7877256741114
 31
0.0
  0
LINE
  5
1D0
330
70
100
AcDbEntity
  8
Layer 1
 62
   250
370
     9
100
AcDbLine
 10
129.0883231395878
 20
140.1435789455929
 30
0.0
 11
129.0883231395878
 21
140.1435789455929
 31
0.0
  0
LINE
  5
1D1
330
70
100
AcDbEntity
  8
Layer 1
 62
   250
370
     9
100
AcDbLine
 10
129.4441764110697
 20
140.4991921001577
 30
0.0
 11
129.4441764110697
 21
140.4991921001577
 31
0.0
  0
LINE
  5
1D2
330
70
100
AcDbEntity
  8
Layer 1
 62
   250
370
     9
100
AcDbLine
 10
129.8000337334265
 20
140.8550453716392
 30
0.0
 11
129.8000337334265
 21
140.8550453716392
 31
0.0
  0
LINE
  5
1D3
330
70
100
AcDbEntity
  8
Layer 1
 62
   250
370
     9
100
AcDbLine
 10
130.1558429345471
 20
141.2110987405521
 30
0.0
 11
130.1558429345471
 21
141.2110987405521
 31
0.0
  0
LINE
  5
1D4
330
70
100
AcDbEntity
  8
Layer 1
 62
   250
370
     9
100
AcDbLine
 10
130.511696206029
 20
141.5942853211229
 30
0.0
 11
130.511696206029
 21
141.5942853211229
 31
0.0
  0
LINE
  5
1D5
330
70
100
AcDbEntity
  8
Layer 1
 62
   250
370
     9
100
AcDbLine
 10
130.8675094580246
 20
141.9501023434171
 30
0.0
 11
130.8675094580246
 21
141.9501023434171
 31
0.0
  0
LINE
  5
1D6
330
70
100
AcDbEntity
  8
Layer 1
 62
   250
370
     9
100
AcDbLine
 10
131.2235628269372
 20
142.3061519420321
 30
0.0
 11
131.2235628269372
 21
142.3061519420321
 31
0.0
  0
LINE
  5
1D7
330
70
100
AcDbEntity
  8
Layer 1
 62
   250
370
     9
100
AcDbLine
 10
128.5408165485913
 20
138.9117391402081
 30
0.0
 11
128.5408165485913
 21
138.9117391402081
 31
0.0
  0
LINE
  5
1D8
330
70
100
AcDbEntity
  8
Layer 1
 62
   250
370
     9
100
AcDbLine
 10
128.8966298005869
 20
139.2675523922037
 30
0.0
 11
128.8966298005869
 21
139.2675523922037
 31
0.0
  0
LINE
  5
1D9
330
70
100
AcDbEntity
  8
Layer 1
 62
   250
370
     9
100
AcDbLine
 10
129.2524830720684
 20
139.6234056636855
 30
0.0
 11
129.2524830720684
 21
139.6234056636855
 31
0.0
  0
LINE
  5
1DA
330
70
100
AcDbEntity
  8
Layer 1
 62
   250
370
     9
100
AcDbLine
 10
129.6084964214955
 20
139.9792189156809
 30
0.0
 11
129.6084964214955
 21
139.9792189156809
 31
0.0
  0
LINE
  5
1DB
330
70
100
AcDbEntity
  8
Layer 1
 62
   250
370
     9
100
AcDbLine
 10
129.9915229241216
 20
140.335072187163
 30
0.0
 11
129.9915229241216
 21
140.335072187163
 31
0.0
  0
LINE
  5
1DC
330
70
100
AcDbEntity
  8
Layer 1
 62
   250
370
     9
100
AcDbLine
 10
130.347536273548
 20
140.6910892750825
 30
0.0
 11
130.347536273548
 21
140.6910892750825
 31
0.0
  0
LINE
  5
1DD
330
70
100
AcDbEntity
  8
Layer 1
 62
   250
370
     9
100
AcDbLine
 10
130.7033895450302
 20
141.0469388080713
 30
0.0
 11
130.7033895450302
 21
141.0469388080713
 31
0.0
  0
LINE
  5
1DE
330
70
100
AcDbEntity
  8
Layer 1
 62
   250
370
     9
100
AcDbLine
 10
131.0592027970258
 20
141.4025919821223
 30
0.0
 11
131.0592027970258
 21
141.4025919821223
 31
0.0
  0
LINE
  5
1DF
330
70
100
AcDbEntity
  8
Layer 1
 62
   250
370
     9
100
AcDbLine
 10
131.4150560685076
 20
141.7584089995736
 30
0.0
 11
131.4150560685076
 21
141.7584089995736
 31
0.0
  0
LINE
  5
1E0
330
70
100
AcDbEntity
  8
Layer 1
 62
   250
370
     9
100
AcDbLine
 10
128.3764565186796
 20
138.0083392582432
 30
0.0
 11
128.3764565186796
 21
138.0083392582432
 31
0.0
  0
LINE
  5
1E1
330
70
100
AcDbEntity
  8
Layer 1
 62
   250
370
     9
100
AcDbLine
 10
128.7325098875925
 20
138.3641925297253
 30
0.0
 11
128.7325098875925
 21
138.3641925297253
 31
0.0
  0
LINE
  5
1E2
330
70
100
AcDbEntity
  8
Layer 1
 62
   250
370
     9
100
AcDbLine
 10
129.0883231395878
 20
138.720005781721
 30
0.0
 11
129.0883231395878
 21
138.720005781721
 31
0.0
  0
LINE
  5
1E3
330
70
100
AcDbEntity
  8
Layer 1
 62
   250
370
     9
100
AcDbLine
 10
129.4441764110697
 20
139.0760591506336
 30
0.0
 11
129.4441764110697
 21
139.0760591506336
 31
0.0
  0
LINE
  5
1E4
330
70
100
AcDbEntity
  8
Layer 1
 62
   250
370
     9
100
AcDbLine
 10
129.8000337334265
 20
139.4319124221157
 30
0.0
 11
129.8000337334265
 21
139.4319124221157
 31
0.0
  0
LINE
  5
1E5
330
70
100
AcDbEntity
  8
Layer 1
 62
   250
370
     9
100
AcDbLine
 10
130.1558429345471
 20
139.7877256741114
 30
0.0
 11
130.1558429345471
 21
139.7877256741114
 31
0.0
  0
LINE
  5
1E6
330
70
100
AcDbEntity
  8
Layer 1
 62
   250
370
     9
100
AcDbLine
 10
130.511696206029
 20
140.1435789455929
 30
0.0
 11
130.511696206029
 21
140.1435789455929
 31
0.0
  0
LINE
  5
1E7
330
70
100
AcDbEntity
  8
Layer 1
 62
   250
370
     9
100
AcDbLine
 10
130.8675094580246
 20
140.4991921001577
 30
0.0
 11
130.8675094580246
 21
140.4991921001577
 31
0.0
  0
LINE
  5
1E8
330
70
100
AcDbEntity
  8
Layer 1
 62
   250
370
     9
100
AcDbLine
 10
131.2235628269372
 20
140.8550453716392
 30
0.0
 11
131.2235628269372
 21
140.8550453716392
 31
0.0
  0
LINE
  5
1E9
330
70
100
AcDbEntity
  8
Layer 1
 62
   250
370
     9
100
AcDbLine
 10
128.5408165485913
 20
137.4610327646777
 30
0.0
 11
128.5408165485913
 21
137.4610327646777
 31
0.0
  0
LINE
  5
1EA
330
70
100
AcDbEntity
  8
Layer 1
 62
   250
370
     9
100
AcDbLine
 10
128.8966298005869
 20
137.8442193452487
 30
0.0
 11
128.8966298005869
 21
137.8442193452487
 31
0.0
  0
LINE
  5
1EB
330
70
100
AcDbEntity
  8
Layer 1
 62
   250
370
     9
100
AcDbLine
 10
129.2524830720684
 20
138.2002326946752
 30
0.0
 11
129.2524830720684
 21
138.2002326946752
 31
0.0
  0
LINE
  5
1EC
330
70
100
AcDbEntity
  8
Layer 1
 62
   250
370
     9
100
AcDbLine
 10
129.6084964214955
 20
138.5558858687262
 30
0.0
 11
129.6084964214955
 21
138.5558858687262
 31
0.0
  0
LINE
  5
1ED
330
70
100
AcDbEntity
  8
Layer 1
 62
   250
370
     9
100
AcDbLine
 10
129.9915229241216
 20
138.9117391402081
 30
0.0
 11
129.9915229241216
 21
138.9117391402081
 31
0.0
  0
LINE
  5
1EE
330
70
100
AcDbEntity
  8
Layer 1
 62
   250
370
     9
100
AcDbLine
 10
130.347536273548
 20
139.2675523922037
 30
0.0
 11
130.347536273548
 21
139.2675523922037
 31
0.0
  0
LINE
  5
1EF
330
70
100
AcDbEntity
  8
Layer 1
 62
   250
370
     9
100
AcDbLine
 10
130.7033895450302
 20
139.6234056636855
 30
0.0
 11
130.7033895450302
 21
139.6234056636855
 31
0.0
  0
LINE
  5
1F0
330
70
100
AcDbEntity
  8
Layer 1
 62
   250
370
     9
100
AcDbLine
 10
131.0592027970258
 20
139.9792189156809
 30
0.0
 11
131.0592027970258
 21
139.9792189156809
 31
0.0
  0
LINE
  5
1F1
330
70
100
AcDbEntity
  8
Layer 1
 62
   250
370
     9
100
AcDbLine
 10
131.4150560685076
 20
140.335072187163
 30
0.0
 11
131.4150560685076
 21
140.335072187163
 31
0.0
  0
LINE
  5
1F2
330
70
100
AcDbEntity
  8
Layer 1
 62
   250
370
     9
100
AcDbLine
 10
128.3764565186796
 20
136.5852063087193
 30
0.0
 11
128.3764565186796
 21
136.5852063087193
 31
0.0
  0
LINE
  5
1F3
330
70
100
AcDbEntity
  8
Layer 1
 62
   250
370
     9
100
AcDbLine
 10
128.7325098875925
 20
136.941019560715
 30
0.0
 11
128.7325098875925
 21
136.941019560715
 31
0.0
  0
LINE
  5
1F4
330
70
100
AcDbEntity
  8
Layer 1
 62
   250
370
     9
100
AcDbLine
 10
129.0883231395878
 20
137.2966727347661
 30
0.0
 11
129.0883231395878
 21
137.2966727347661
 31
0.0
  0
LINE
  5
1F5
330
70
100
AcDbEntity
  8
Layer 1
 62
   250
370
     9
100
AcDbLine
 10
129.4441764110697
 20
137.6525260062475
 30
0.0
 11
129.4441764110697
 21
137.6525260062475
 31
0.0
  0
LINE
  5
1F6
330
70
100
AcDbEntity
  8
Layer 1
 62
   250
370
     9
100
AcDbLine
 10
129.8000337334265
 20
138.0083392582432
 30
0.0
 11
129.8000337334265
 21
138.0083392582432
 31
0.0
  0
LINE
  5
1F7
330
70
100
AcDbEntity
  8
Layer 1
 62
   250
370
     9
100
AcDbLine
 10
130.1558429345471
 20
138.3641925297253
 30
0.0
 11
130.1558429345471
 21
138.3641925297253
 31
0.0
  0
LINE
  5
1F8
330
70
100
AcDbEntity
  8
Layer 1
 62
   250
370
     9
100
AcDbLine
 10
130.511696206029
 20
138.720005781721
 30
0.0
 11
130.511696206029
 21
138.720005781721
 31
0.0
  0
LINE
  5
1F9
330
70
100
AcDbEntity
  8
Layer 1
 62
   250
370
     9
100
AcDbLine
 10
130.8675094580246
 20
139.0760591506336
 30
0.0
 11
130.8675094580246
 21
139.0760591506336
 31
0.0
  0
LINE
  5
1FA
330
70
100
AcDbEntity
  8
Layer 1
 62
   250
370
     9
100
AcDbLine
 10
131.2235628269372
 20
139.4319124221157
 30
0.0
 11
131.2235628269372
 21
139.4319124221157
 31
0.0
  0
LINE
  5
1FB
330
70
100
AcDbEntity
  8
Layer 1
 62
   250
370
     9
100
AcDbLine
 10
128.5408165485913
 20
136.0376596982366
 30
0.0
 11
128.5408165485913
 21
136.0376596982366
 31
0.0
  0
LINE
  5
1FC
330
70
100
AcDbEntity
  8
Layer 1
 62
   250
370
     9
100
AcDbLine
 10
128.8966298005869
 20
136.3933128722873
 30
0.0
 11
128.8966298005869
 21
136.3933128722873
 31
0.0
  0
LINE
  5
1FD
330
70
100
AcDbEntity
  8
Layer 1
 62
   250
370
     9
100
AcDbLine
 10
129.2524830720684
 20
136.7491261242827
 30
0.0
 11
129.2524830720684
 21
136.7491261242827
 31
0.0
  0
LINE
  5
1FE
330
70
100
AcDbEntity
  8
Layer 1
 62
   250
370
     9
100
AcDbLine
 10
129.6084964214955
 20
137.1049793957648
 30
0.0
 11
129.6084964214955
 21
137.1049793957648
 31
0.0
  0
LINE
  5
1FF
330
70
100
AcDbEntity
  8
Layer 1
 62
   250
370
     9
100
AcDbLine
 10
129.9915229241216
 20
137.4610327646777
 30
0.0
 11
129.9915229241216
 21
137.4610327646777
 31
0.0
  0
LINE
  5
200
330
70
100
AcDbEntity
  8
Layer 1
 62
   250
370
     9
100
AcDbLine
 10
130.347536273548
 20
137.8442193452487
 30
0.0
 11
130.347536273548
 21
137.8442193452487
 31
0.0
  0
LINE
  5
201
330
70
100
AcDbEntity
  8
Layer 1
 62
   250
370
     9
100
AcDbLine
 10
130.7033895450302
 20
138.2002326946752
 30
0.0
 11
130.7033895450302
 21
138.2002326946752
 31
0.0
  0
LINE
  5
202
330
70
100
AcDbEntity
  8
Layer 1
 62
   250
370
     9
100
AcDbLine
 10
131.0592027970258
 20
138.5558858687262
 30
0.0
 11
131.0592027970258
 21
138.5558858687262
 31
0.0
  0
LINE
  5
203
330
70
100
AcDbEntity
  8
Layer 1
 62
   250
370
     9
100
AcDbLine
 10
131.4150560685076
 20
138.9117391402081
 30
0.0
 11
131.4150560685076
 21
138.9117391402081
 31
0.0
  0
LINE
  5
204
330
70
100
AcDbEntity
  8
Layer 1
 62
   250
370
     9
100
AcDbLine
 10
128.3764565186796
 20
135.1616331448475
 30
0.0
 11
128.3764565186796
 21
135.1616331448475
 31
0.0
  0
LINE
  5
205
330
70
100
AcDbEntity
  8
Layer 1
 62
   250
370
     9
100
AcDbLine
 10
128.7325098875925
 20
135.517486416329
 30
0.0
 11
128.7325098875925
 21
135.517486416329
 31
0.0
  0
LINE
  5
206
330
70
100
AcDbEntity
  8
Layer 1
 62
   250
370
     9
100
AcDbLine
 10
129.0883231395878
 20
135.8733396878111
 30
0.0
 11
129.0883231395878
 21
135.8733396878111
 31
0.0
  0
LINE
  5
207
330
70
100
AcDbEntity
  8
Layer 1
 62
   250
370
     9
100
AcDbLine
 10
129.4441764110697
 20
136.2291529398067
 30
0.0
 11
129.4441764110697
 21
136.2291529398067
 31
0.0
  0
LINE
  5
208
330
70
100
AcDbEntity
  8
Layer 1
 62
   250
370
     9
100
AcDbLine
 10
129.8000337334265
 20
136.5852063087193
 30
0.0
 11
129.8000337334265
 21
136.5852063087193
 31
0.0
  0
LINE
  5
209
330
70
100
AcDbEntity
  8
Layer 1
 62
   250
370
     9
100
AcDbLine
 10
130.1558429345471
 20
136.941019560715
 30
0.0
 11
130.1558429345471
 21
136.941019560715
 31
0.0
  0
LINE
  5
20A
330
70
100
AcDbEntity
  8
Layer 1
 62
   250
370
     9
100
AcDbLine
 10
130.511696206029
 20
137.2966727347661
 30
0.0
 11
130.511696206029
 21
137.2966727347661
 31
0.0
  0
LINE
  5
20B
330
70
100
AcDbEntity
  8
Layer 1
 62
   250
370
     9
100
AcDbLine
 10
130.8675094580246
 20
137.6525260062475
 30
0.0
 11
130.8675094580246
 21
137.6525260062475
 31
0.0
  0
LINE
  5
20C
330
70
100
AcDbEntity
  8
Layer 1
 62
   250
370
     9
100
AcDbLine
 10
131.2235628269372
 20
138.0083392582432
 30
0.0
 11
131.2235628269372
 21
138.0083392582432
 31
0.0
  0
LINE
  5
20D
330
70
100
AcDbEntity
  8
Layer 1
 62
   250
370
     9
100
AcDbLine
 10
128.5408165485913
 20
134.6141301388264
 30
0.0
 11
128.5408165485913
 21
134.6141301388264
 31
0.0
  0
LINE
  5
20E
330
70
100
AcDbEntity
  8
Layer 1
 62
   250
370
     9
100
AcDbLine
 10
128.8966298005869
 20
134.9701399032773
 30
0.0
 11
128.8966298005869
 21
134.9701399032773
 31
0.0
  0
LINE
  5
20F
330
70
100
AcDbEntity
  8
Layer 1
 62
   250
370
     9
100
AcDbLine
 10
129.2524830720684
 20
135.3259931747592
 30
0.0
 11
129.2524830720684
 21
135.3259931747592
 31
0.0
  0
LINE
  5
210
330
70
100
AcDbEntity
  8
Layer 1
 62
   250
370
     9
100
AcDbLine
 10
129.6084964214955
 20
135.6818064267548
 30
0.0
 11
129.6084964214955
 21
135.6818064267548
 31
0.0
  0
LINE
  5
211
330
70
100
AcDbEntity
  8
Layer 1
 62
   250
370
     9
100
AcDbLine
 10
129.9915229241216
 20
136.0376596982366
 30
0.0
 11
129.9915229241216
 21
136.0376596982366
 31
0.0
  0
LINE
  5
212
330
70
100
AcDbEntity
  8
Layer 1
 62
   250
370
     9
100
AcDbLine
 10
130.347536273548
 20
136.3933128722873
 30
0.0
 11
130.347536273548
 21
136.3933128722873
 31
0.0
  0
LINE
  5
213
330
70
100
AcDbEntity
  8
Layer 1
 62
   250
370
     9
100
AcDbLine
 10
130.7033895450302
 20
136.7491261242827
 30
0.0
 11
130.7033895450302
 21
136.7491261242827
 31
0.0
  0
LINE
  5
214
330
70
100
AcDbEntity
  8
Layer 1
 62
   250
370
     9
100
AcDbLine
 10
131.0592027970258
 20
137.1049793957648
 30
0.0
 11
131.0592027970258
 21
137.1049793957648
 31
0.0
  0
LINE
  5
215
330
70
100
AcDbEntity
  8
Layer 1
 62
   250
370
     9
100
AcDbLine
 10
131.4150560685076
 20
137.4610327646777
 30
0.0
 11
131.4150560685076
 21
137.4610327646777
 31
0.0
  0
LINE
  5
216
330
70
100
AcDbEntity
  8
Layer 1
 62
   250
370
     9
100
AcDbLine
 10
128.3764565186796
 20
133.738103563307
 30
0.0
 11
128.3764565186796
 21
133.738103563307
 31
0.0
  0
LINE
  5
217
330
70
100
AcDbEntity
  8
Layer 1
 62
   250
370
     9
100
AcDbLine
 10
128.7325098875925
 20
134.0939532719432
 30
0.0
 11
128.7325098875925
 21
134.0939532719432
 31
0.0
  0
LINE
  5
218
330
70
100
AcDbEntity
  8
Layer 1
 62
   250
370
     9
100
AcDbLine
 10
129.0883231395878
 20
134.4499666213697
 30
0.0
 11
129.0883231395878
 21
134.4499666213697
 31
0.0
  0
LINE
  5
219
330
70
100
AcDbEntity
  8
Layer 1
 62
   250
370
     9
100
AcDbLine
 10
129.4441764110697
 20
134.8058234826702
 30
0.0
 11
129.4441764110697
 21
134.8058234826702
 31
0.0
  0
LINE
  5
21A
330
70
100
AcDbEntity
  8
Layer 1
 62
   250
370
     9
100
AcDbLine
 10
129.8000337334265
 20
135.1616331448475
 30
0.0
 11
129.8000337334265
 21
135.1616331448475
 31
0.0
  0
LINE
  5
21B
330
70
100
AcDbEntity
  8
Layer 1
 62
   250
370
     9
100
AcDbLine
 10
130.1558429345471
 20
135.517486416329
 30
0.0
 11
130.1558429345471
 21
135.517486416329
 31
0.0
  0
LINE
  5
21C
330
70
100
AcDbEntity
  8
Layer 1
 62
   250
370
     9
100
AcDbLine
 10
130.511696206029
 20
135.8733396878111
 30
0.0
 11
130.511696206029
 21
135.8733396878111
 31
0.0
  0
LINE
  5
21D
330
70
100
AcDbEntity
  8
Layer 1
 62
   250
370
     9
100
AcDbLine
 10
130.8675094580246
 20
136.2291529398067
 30
0.0
 11
130.8675094580246
 21
136.2291529398067
 31
0.0
  0
LINE
  5
21E
330
70
100
AcDbEntity
  8
Layer 1
 62
   250
370
     9
100
AcDbLine
 10
131.2235628269372
 20
136.5852063087193
 30
0.0
 11
131.2235628269372
 21
136.5852063087193
 31
0.0
  0
LINE
  5
21F
330
70
100
AcDbEntity
  8
Layer 1
 62
   250
370
     9
100
AcDbLine
 10
128.5408165485913
 20
133.1907534874095
 30
0.0
 11
128.5408165485913
 21
133.1907534874095
 31
0.0
  0
LINE
  5
220
330
70
100
AcDbEntity
  8
Layer 1
 62
   250
370
     9
100
AcDbLine
 10
128.8966298005869
 20
133.5466067588913
 30
0.0
 11
128.8966298005869
 21
133.5466067588913
 31
0.0
  0
LINE
  5
221
330
70
100
AcDbEntity
  8
Layer 1
 62
   250
370
     9
100
AcDbLine
 10
129.2524830720684
 20
133.9024600303731
 30
0.0
 11
129.2524830720684
 21
133.9024600303731
 31
0.0
  0
LINE
  5
222
330
70
100
AcDbEntity
  8
Layer 1
 62
   250
370
     9
100
AcDbLine
 10
129.6084964214955
 20
134.2582732823688
 30
0.0
 11
129.6084964214955
 21
134.2582732823688
 31
0.0
  0
LINE
  5
223
330
70
100
AcDbEntity
  8
Layer 1
 62
   250
370
     9
100
AcDbLine
 10
129.9915229241216
 20
134.6141301388264
 30
0.0
 11
129.9915229241216
 21
134.6141301388264
 31
0.0
  0
LINE
  5
224
330
70
100
AcDbEntity
  8
Layer 1
 62
   250
370
     9
100
AcDbLine
 10
130.347536273548
 20
134.9701399032773
 30
0.0
 11
130.347536273548
 21
134.9701399032773
 31
0.0
  0
LINE
  5
225
330
70
100
AcDbEntity
  8
Layer 1
 62
   250
370
     9
100
AcDbLine
 10
130.7033895450302
 20
135.3259931747592
 30
0.0
 11
130.7033895450302
 21
135.3259931747592
 31
0.0
  0
LINE
  5
226
330
70
100
AcDbEntity
  8
Layer 1
 62
   250
370
     9
100
AcDbLine
 10
131.0592027970258
 20
135.6818064267548
 30
0.0
 11
131.0592027970258
 21
135.6818064267548
 31
0.0
  0
LINE
  5
227
330
70
100
AcDbEntity
  8
Layer 1
 62
   250
370
     9
100
AcDbLine
 10
131.4150560685076
 20
136.0376596982366
 30
0.0
 11
131.4150560685076
 21
136.0376596982366
 31
0.0
  0
LINE
  5
228
330
70
100
AcDbEntity
  8
Layer 1
 62
   250
370
     9
100
AcDbLine
 10
128.3764565186796
 20
132.287397151129
 30
0.0
 11
128.3764565186796
 21
132.287397151129
 31
0.0
  0
LINE
  5
229
330
70
100
AcDbEntity
  8
Layer 1
 62
   250
370
     9
100
AcDbLine
 10
128.7325098875925
 20
132.6432468964129
 30
0.0
 11
128.7325098875925
 21
132.6432468964129
 31
0.0
  0
LINE
  5
22A
330
70
100
AcDbEntity
  8
Layer 1
 62
   250
370
     9
100
AcDbLine
 10
129.0883231395878
 20
132.9990601484086
 30
0.0
 11
129.0883231395878
 21
132.9990601484086
 31
0.0
  0
LINE
  5
22B
330
70
100
AcDbEntity
  8
Layer 1
 62
   250
370
     9
100
AcDbLine
 10
129.4441764110697
 20
133.3551170704919
 30
0.0
 11
129.4441764110697
 21
133.3551170704919
 31
0.0
  0
LINE
  5
22C
330
70
100
AcDbEntity
  8
Layer 1
 62
   250
370
     9
100
AcDbLine
 10
129.8000337334265
 20
133.738103563307
 30
0.0
 11
129.8000337334265
 21
133.738103563307
 31
0.0
  0
LINE
  5
22D
330
70
100
AcDbEntity
  8
Layer 1
 62
   250
370
     9
100
AcDbLine
 10
130.1558429345471
 20
134.0939532719432
 30
0.0
 11
130.1558429345471
 21
134.0939532719432
 31
0.0
  0
LINE
  5
22E
330
70
100
AcDbEntity
  8
Layer 1
 62
   250
370
     9
100
AcDbLine
 10
130.511696206029
 20
134.4499666213697
 30
0.0
 11
130.511696206029
 21
134.4499666213697
 31
0.0
  0
LINE
  5
22F
330
70
100
AcDbEntity
  8
Layer 1
 62
   250
370
     9
100
AcDbLine
 10
130.8675094580246
 20
134.8058234826702
 30
0.0
 11
130.8675094580246
 21
134.8058234826702
 31
0.0
  0
LINE
  5
230
330
70
100
AcDbEntity
  8
Layer 1
 62
   250
370
     9
100
AcDbLine
 10
131.2235628269372
 20
135.1616331448475
 30
0.0
 11
131.2235628269372
 21
135.1616331448475
 31
0.0
  0
LINE
  5
231
330
70
100
AcDbEntity
  8
Layer 1
 62
   250
370
     9
100
AcDbLine
 10
128.5408165485913
 20
131.7672203430237
 30
0.0
 11
128.5408165485913
 21
131.7672203430237
 31
0.0
  0
LINE
  5
232
330
70
100
AcDbEntity
  8
Layer 1
 62
   250
370
     9
100
AcDbLine
 10
128.8966298005869
 20
132.1230736145053
 30
0.0
 11
128.8966298005869
 21
132.1230736145053
 31
0.0
  0
LINE
  5
233
330
70
100
AcDbEntity
  8
Layer 1
 62
   250
370
     9
100
AcDbLine
 10
129.2524830720684
 20
132.4788868665009
 30
0.0
 11
129.2524830720684
 21
132.4788868665009
 31
0.0
  0
LINE
  5
234
330
70
100
AcDbEntity
  8
Layer 1
 62
   250
370
     9
100
AcDbLine
 10
129.6084964214955
 20
132.8349402354142
 30
0.0
 11
129.6084964214955
 21
132.8349402354142
 31
0.0
  0
LINE
  5
235
330
70
100
AcDbEntity
  8
Layer 1
 62
   250
370
     9
100
AcDbLine
 10
129.9915229241216
 20
133.1907534874095
 30
0.0
 11
129.9915229241216
 21
133.1907534874095
 31
0.0
  0
LINE
  5
236
330
70
100
AcDbEntity
  8
Layer 1
 62
   250
370
     9
100
AcDbLine
 10
130.347536273548
 20
133.5466067588913
 30
0.0
 11
130.347536273548
 21
133.5466067588913
 31
0.0
  0
LINE
  5
237
330
70
100
AcDbEntity
  8
Layer 1
 62
   250
370
     9
100
AcDbLine
 10
130.7033895450302
 20
133.9024600303731
 30
0.0
 11
130.7033895450302
 21
133.9024600303731
 31
0.0
  0
LINE
  5
238
330
70
100
AcDbEntity
  8
Layer 1
 62
   250
370
     9
100
AcDbLine
 10
131.0592027970258
 20
134.2582732823688
 30
0.0
 11
131.0592027970258
 21
134.2582732823688
 31
0.0
  0
LINE
  5
239
330
70
100
AcDbEntity
  8
Layer 1
 62
   250
370
     9
100
AcDbLine
 10
131.4150560685076
 20
134.6141301388264
 30
0.0
 11
131.4150560685076
 21
134.6141301388264
 31
0.0
  0
LINE
  5
23A
330
70
100
AcDbEntity
  8
Layer 1
 62
   250
370
     9
100
AcDbLine
 10
128.3764565186796
 20
130.8638604805447
 30
0.0
 11
128.3764565186796
 21
130.8638604805447
 31
0.0
  0
LINE
  5
23B
330
70
100
AcDbEntity
  8
Layer 1
 62
   250
370
     9
100
AcDbLine
 10
128.7325098875925
 20
131.2198738299718
 30
0.0
 11
128.7325098875925
 21
131.2198738299718
 31
0.0
  0
LINE
  5
23C
330
70
100
AcDbEntity
  8
Layer 1
 62
   250
370
     9
100
AcDbLine
 10
129.0883231395878
 20
131.5757271014536
 30
0.0
 11
129.0883231395878
 21
131.5757271014536
 31
0.0
  0
LINE
  5
23D
330
70
100
AcDbEntity
  8
Layer 1
 62
   250
370
     9
100
AcDbLine
 10
129.4441764110697
 20
131.9315803729358
 30
0.0
 11
129.4441764110697
 21
131.9315803729358
 31
0.0
  0
LINE
  5
23E
330
70
100
AcDbEntity
  8
Layer 1
 62
   250
370
     9
100
AcDbLine
 10
129.8000337334265
 20
132.287397151129
 30
0.0
 11
129.8000337334265
 21
132.287397151129
 31
0.0
  0
LINE
  5
23F
330
70
100
AcDbEntity
  8
Layer 1
 62
   250
370
     9
100
AcDbLine
 10
130.1558429345471
 20
132.6432468964129
 30
0.0
 11
130.1558429345471
 21
132.6432468964129
 31
0.0
  0
LINE
  5
240
330
70
100
AcDbEntity
  8
Layer 1
 62
   250
370
     9
100
AcDbLine
 10
130.511696206029
 20
132.9990601484086
 30
0.0
 11
130.511696206029
 21
132.9990601484086
 31
0.0
  0
LINE
  5
241
330
70
100
AcDbEntity
  8
Layer 1
 62
   250
370
     9
100
AcDbLine
 10
130.8675094580246
 20
133.3551170704919
 30
0.0
 11
130.8675094580246
 21
133.3551170704919
 31
0.0
  0
LINE
  5
242
330
70
100
AcDbEntity
  8
Layer 1
 62
   250
370
     9
100
AcDbLine
 10
131.2235628269372
 20
133.738103563307
 30
0.0
 11
131.2235628269372
 21
133.738103563307
 31
0.0
  0
LINE
  5
243
330
70
100
AcDbEntity
  8
Layer 1
 62
   250
370
     9
100
AcDbLine
 10
128.5408165485913
 20
130.3438872960692
 30
0.0
 11
128.5408165485913
 21
130.3438872960692
 31
0.0
  0
LINE
  5
244
330
70
100
AcDbEntity
  8
Layer 1
 62
   250
370
     9
100
AcDbLine
 10
128.8966298005869
 20
130.6997005480645
 30
0.0
 11
128.8966298005869
 21
130.6997005480645
 31
0.0
  0
LINE
  5
245
330
70
100
AcDbEntity
  8
Layer 1
 62
   250
370
     9
100
AcDbLine
 10
129.2524830720684
 20
131.055553819546
 30
0.0
 11
129.2524830720684
 21
131.055553819546
 31
0.0
  0
LINE
  5
246
330
70
100
AcDbEntity
  8
Layer 1
 62
   250
370
     9
100
AcDbLine
 10
129.6084964214955
 20
131.4114070910284
 30
0.0
 11
129.6084964214955
 21
131.4114070910284
 31
0.0
  0
LINE
  5
247
330
70
100
AcDbEntity
  8
Layer 1
 62
   250
370
     9
100
AcDbLine
 10
129.9915229241216
 20
131.7672203430237
 30
0.0
 11
129.9915229241216
 21
131.7672203430237
 31
0.0
  0
LINE
  5
248
330
70
100
AcDbEntity
  8
Layer 1
 62
   250
370
     9
100
AcDbLine
 10
130.347536273548
 20
132.1230736145053
 30
0.0
 11
130.347536273548
 21
132.1230736145053
 31
0.0
  0
LINE
  5
249
330
70
100
AcDbEntity
  8
Layer 1
 62
   250
370
     9
100
AcDbLine
 10
130.7033895450302
 20
132.4788868665009
 30
0.0
 11
130.7033895450302
 21
132.4788868665009
 31
0.0
  0
LINE
  5
24A
330
70
100
AcDbEntity
  8
Layer 1
 62
   250
370
     9
100
AcDbLine
 10
131.0592027970258
 20
132.8349402354142
 30
0.0
 11
131.0592027970258
 21
132.8349402354142
 31
0.0
  0
LINE
  5
24B
330
70
100
AcDbEntity
  8
Layer 1
 62
   250
370
     9
100
AcDbLine
 10
131.4150560685076
 20
133.1907534874095
 30
0.0
 11
131.4150560685076
 21
133.1907534874095
 31
0.0
  0
LINE
  5
24C
330
70
100
AcDbEntity
  8
Layer 1
 62
   250
370
     9
100
AcDbLine
 10
128.3764565186796
 20
129.440487414104
 30
0.0
 11
128.3764565186796
 21
129.440487414104
 31
0.0
  0
LINE
  5
24D
330
70
100
AcDbEntity
  8
Layer 1
 62
   250
370
     9
100
AcDbLine
 10
128.7325098875925
 20
129.7963406855854
 30
0.0
 11
128.7325098875925
 21
129.7963406855854
 31
0.0
  0
LINE
  5
24E
330
70
100
AcDbEntity
  8
Layer 1
 62
   250
370
     9
100
AcDbLine
 10
129.0883231395878
 20
130.1521939570676
 30
0.0
 11
129.0883231395878
 21
130.1521939570676
 31
0.0
  0
LINE
  5
24F
330
70
100
AcDbEntity
  8
Layer 1
 62
   250
370
     9
100
AcDbLine
 10
129.4441764110697
 20
130.5080072090632
 30
0.0
 11
129.4441764110697
 21
130.5080072090632
 31
0.0
  0
LINE
  5
250
330
70
100
AcDbEntity
  8
Layer 1
 62
   250
370
     9
100
AcDbLine
 10
129.8000337334265
 20
130.8638604805447
 30
0.0
 11
129.8000337334265
 21
130.8638604805447
 31
0.0
  0
LINE
  5
251
330
70
100
AcDbEntity
  8
Layer 1
 62
   250
370
     9
100
AcDbLine
 10
130.1558429345471
 20
131.2198738299718
 30
0.0
 11
130.1558429345471
 21
131.2198738299718
 31
0.0
  0
LINE
  5
252
330
70
100
AcDbEntity
  8
Layer 1
 62
   250
370
     9
100
AcDbLine
 10
130.511696206029
 20
131.5757271014536
 30
0.0
 11
130.511696206029
 21
131.5757271014536
 31
0.0
  0
LINE
  5
253
330
70
100
AcDbEntity
  8
Layer 1
 62
   250
370
     9
100
AcDbLine
 10
130.8675094580246
 20
131.9315803729358
 30
0.0
 11
130.8675094580246
 21
131.9315803729358
 31
0.0
  0
LINE
  5
254
330
70
100
AcDbEntity
  8
Layer 1
 62
   250
370
     9
100
AcDbLine
 10
131.2235628269372
 20
132.287397151129
 30
0.0
 11
131.2235628269372
 21
132.287397151129
 31
0.0
  0
LINE
  5
255
330
70
100
AcDbEntity
  8
Layer 1
 62
   250
370
     9
100
AcDbLine
 10
128.5408165485913
 20
128.8929808231077
 30
0.0
 11
128.5408165485913
 21
128.8929808231077
 31
0.0
  0
LINE
  5
256
330
70
100
AcDbEntity
  8
Layer 1
 62
   250
370
     9
100
AcDbLine
 10
128.8966298005869
 20
129.2487940751037
 30
0.0
 11
128.8966298005869
 21
129.2487940751037
 31
0.0
  0
LINE
  5
257
330
70
100
AcDbEntity
  8
Layer 1
 62
   250
370
     9
100
AcDbLine
 10
129.2524830720684
 20
129.6048474440157
 30
0.0
 11
129.2524830720684
 21
129.6048474440157
 31
0.0
  0
LINE
  5
258
330
70
100
AcDbEntity
  8
Layer 1
 62
   250
370
     9
100
AcDbLine
 10
129.6084964214955
 20
129.9880340245867
 30
0.0
 11
129.6084964214955
 21
129.9880340245867
 31
0.0
  0
LINE
  5
259
330
70
100
AcDbEntity
  8
Layer 1
 62
   250
370
     9
100
AcDbLine
 10
129.9915229241216
 20
130.3438872960692
 30
0.0
 11
129.9915229241216
 21
130.3438872960692
 31
0.0
  0
LINE
  5
25A
330
70
100
AcDbEntity
  8
Layer 1
 62
   250
370
     9
100
AcDbLine
 10
130.347536273548
 20
130.6997005480645
 30
0.0
 11
130.347536273548
 21
130.6997005480645
 31
0.0
  0
LINE
  5
25B
330
70
100
AcDbEntity
  8
Layer 1
 62
   250
370
     9
100
AcDbLine
 10
130.7033895450302
 20
131.055553819546
 30
0.0
 11
130.7033895450302
 21
131.055553819546
 31
0.0
  0
LINE
  5
25C
330
70
100
AcDbEntity
  8
Layer 1
 62
   250
370
     9
100
AcDbLine
 10
131.0592027970258
 20
131.4114070910284
 30
0.0
 11
131.0592027970258
 21
131.4114070910284
 31
0.0
  0
LINE
  5
25D
330
70
100
AcDbEntity
  8
Layer 1
 62
   250
370
     9
100
AcDbLine
 10
131.4150560685076
 20
131.7672203430237
 30
0.0
 11
131.4150560685076
 21
131.7672203430237
 31
0.0
  0
LINE
  5
25E
330
70
100
AcDbEntity
  8
Layer 1
 62
   250
370
     9
100
AcDbLine
 10
128.3764565186796
 20
128.017154367149
 30
0.0
 11
128.3764565186796
 21
128.017154367149
 31
0.0
  0
LINE
  5
25F
330
70
100
AcDbEntity
  8
Layer 1
 62
   250
370
     9
100
AcDbLine
 10
128.7325098875925
 20
128.3730076386311
 30
0.0
 11
128.7325098875925
 21
128.3730076386311
 31
0.0
  0
LINE
  5
260
330
70
100
AcDbEntity
  8
Layer 1
 62
   250
370
     9
100
AcDbLine
 10
129.0883231395878
 20
128.7290209880576
 30
0.0
 11
129.0883231395878
 21
128.7290209880576
 31
0.0
  0
LINE
  5
261
330
70
100
AcDbEntity
  8
Layer 1
 62
   250
370
     9
100
AcDbLine
 10
129.4441764110697
 20
129.0846741621086
 30
0.0
 11
129.4441764110697
 21
129.0846741621086
 31
0.0
  0
LINE
  5
262
330
70
100
AcDbEntity
  8
Layer 1
 62
   250
370
     9
100
AcDbLine
 10
129.8000337334265
 20
129.440487414104
 30
0.0
 11
129.8000337334265
 21
129.440487414104
 31
0.0
  0
LINE
  5
263
330
70
100
AcDbEntity
  8
Layer 1
 62
   250
370
     9
100
AcDbLine
 10
130.1558429345471
 20
129.7963406855854
 30
0.0
 11
130.1558429345471
 21
129.7963406855854
 31
0.0
  0
LINE
  5
264
330
70
100
AcDbEntity
  8
Layer 1
 62
   250
370
     9
100
AcDbLine
 10
130.511696206029
 20
130.1521939570676
 30
0.0
 11
130.511696206029
 21
130.1521939570676
 31
0.0
  0
LINE
  5
265
330
70
100
AcDbEntity
  8
Layer 1
 62
   250
370
     9
100
AcDbLine
 10
130.8675094580246
 20
130.5080072090632
 30
0.0
 11
130.8675094580246
 21
130.5080072090632
 31
0.0
  0
LINE
  5
266
330
70
100
AcDbEntity
  8
Layer 1
 62
   250
370
     9
100
AcDbLine
 10
131.2235628269372
 20
130.8638604805447
 30
0.0
 11
131.2235628269372
 21
130.8638604805447
 31
0.0
  0
LINE
  5
267
330
70
100
AcDbEntity
  8
Layer 1
 62
   250
370
     9
100
AcDbLine
 10
128.5408165485913
 20
127.4698078540971
 30
0.0
 11
128.5408165485913
 21
127.4698078540971
 31
0.0
  0
LINE
  5
268
330
70
100
AcDbEntity
  8
Layer 1
 62
   250
370
     9
100
AcDbLine
 10
128.8966298005869
 20
127.8256611255789
 30
0.0
 11
128.8966298005869
 21
127.8256611255789
 31
0.0
  0
LINE
  5
269
330
70
100
AcDbEntity
  8
Layer 1
 62
   250
370
     9
100
AcDbLine
 10
129.2524830720684
 20
128.1813142996299
 30
0.0
 11
129.2524830720684
 21
128.1813142996299
 31
0.0
  0
LINE
  5
26A
330
70
100
AcDbEntity
  8
Layer 1
 62
   250
370
     9
100
AcDbLine
 10
129.6084964214955
 20
128.5371275516256
 30
0.0
 11
129.6084964214955
 21
128.5371275516256
 31
0.0
  0
LINE
  5
26B
330
70
100
AcDbEntity
  8
Layer 1
 62
   250
370
     9
100
AcDbLine
 10
129.9915229241216
 20
128.8929808231077
 30
0.0
 11
129.9915229241216
 21
128.8929808231077
 31
0.0
  0
LINE
  5
26C
330
70
100
AcDbEntity
  8
Layer 1
 62
   250
370
     9
100
AcDbLine
 10
130.347536273548
 20
129.2487940751037
 30
0.0
 11
130.347536273548
 21
129.2487940751037
 31
0.0
  0
LINE
  5
26D
330
70
100
AcDbEntity
  8
Layer 1
 62
   250
370
     9
100
AcDbLine
 10
130.7033895450302
 20
129.6048474440157
 30
0.0
 11
130.7033895450302
 21
129.6048474440157
 31
0.0
  0
LINE
  5
26E
330
70
100
AcDbEntity
  8
Layer 1
 62
   250
370
     9
100
AcDbLine
 10
131.0592027970258
 20
129.9880340245867
 30
0.0
 11
131.0592027970258
 21
129.9880340245867
 31
0.0
  0
LINE
  5
26F
330
70
100
AcDbEntity
  8
Layer 1
 62
   250
370
     9
100
AcDbLine
 10
131.4150560685076
 20
130.3438872960692
 30
0.0
 11
131.4150560685076
 21
130.3438872960692
 31
0.0
  0
LINE
  5
270
330
70
100
AcDbEntity
  8
Layer 1
 62
   250
370
     9
100
AcDbLine
 10
128.3764565186796
 20
126.5938247025605
 30
0.0
 11
128.3764565186796
 21
126.5938247025605
 31
0.0
  0
LINE
  5
271
330
70
100
AcDbEntity
  8
Layer 1
 62
   250
370
     9
100
AcDbLine
 10
128.7325098875925
 20
126.9496345721897
 30
0.0
 11
128.7325098875925
 21
126.9496345721897
 31
0.0
  0
LINE
  5
272
330
70
100
AcDbEntity
  8
Layer 1
 62
   250
370
     9
100
AcDbLine
 10
129.0883231395878
 20
127.3054878436719
 30
0.0
 11
129.0883231395878
 21
127.3054878436719
 31
0.0
  0
LINE
  5
273
330
70
100
AcDbEntity
  8
Layer 1
 62
   250
370
     9
100
AcDbLine
 10
129.4441764110697
 20
127.6613010956672
 30
0.0
 11
129.4441764110697
 21
127.6613010956672
 31
0.0
  0
LINE
  5
274
330
70
100
AcDbEntity
  8
Layer 1
 62
   250
370
     9
100
AcDbLine
 10
129.8000337334265
 20
128.017154367149
 30
0.0
 11
129.8000337334265
 21
128.017154367149
 31
0.0
  0
LINE
  5
275
330
70
100
AcDbEntity
  8
Layer 1
 62
   250
370
     9
100
AcDbLine
 10
130.1558429345471
 20
128.3730076386311
 30
0.0
 11
130.1558429345471
 21
128.3730076386311
 31
0.0
  0
LINE
  5
276
330
70
100
AcDbEntity
  8
Layer 1
 62
   250
370
     9
100
AcDbLine
 10
130.511696206029
 20
128.7290209880576
 30
0.0
 11
130.511696206029
 21
128.7290209880576
 31
0.0
  0
LINE
  5
277
330
70
100
AcDbEntity
  8
Layer 1
 62
   250
370
     9
100
AcDbLine
 10
130.8675094580246
 20
129.0846741621086
 30
0.0
 11
130.8675094580246
 21
129.0846741621086
 31
0.0
  0
LINE
  5
278
330
70
100
AcDbEntity
  8
Layer 1
 62
   250
370
     9
100
AcDbLine
 10
131.2235628269372
 20
129.440487414104
 30
0.0
 11
131.2235628269372
 21
129.440487414104
 31
0.0
  0
LINE
  5
279
330
70
100
AcDbEntity
  8
Layer 1
 62
   250
370
     9
100
AcDbLine
 10
128.5408165485913
 20
126.0462747097114
 30
0.0
 11
128.5408165485913
 21
126.0462747097114
 31
0.0
  0
LINE
  5
27A
330
70
100
AcDbEntity
  8
Layer 1
 62
   250
370
     9
100
AcDbLine
 10
128.8966298005869
 20
126.4021313587167
 30
0.0
 11
128.8966298005869
 21
126.4021313587167
 31
0.0
  0
LINE
  5
27B
330
70
100
AcDbEntity
  8
Layer 1
 62
   250
370
     9
100
AcDbLine
 10
129.2524830720684
 20
126.7579412331891
 30
0.0
 11
129.2524830720684
 21
126.7579412331891
 31
0.0
  0
LINE
  5
27C
330
70
100
AcDbEntity
  8
Layer 1
 62
   250
370
     9
100
AcDbLine
 10
129.6084964214955
 20
127.1139946021017
 30
0.0
 11
129.6084964214955
 21
127.1139946021017
 31
0.0
  0
LINE
  5
27D
330
70
100
AcDbEntity
  8
Layer 1
 62
   250
370
     9
100
AcDbLine
 10
129.9915229241216
 20
127.4698078540971
 30
0.0
 11
129.9915229241216
 21
127.4698078540971
 31
0.0
  0
LINE
  5
27E
330
70
100
AcDbEntity
  8
Layer 1
 62
   250
370
     9
100
AcDbLine
 10
130.347536273548
 20
127.8256611255789
 30
0.0
 11
130.347536273548
 21
127.8256611255789
 31
0.0
  0
LINE
  5
27F
330
70
100
AcDbEntity
  8
Layer 1
 62
   250
370
     9
100
AcDbLine
 10
130.7033895450302
 20
128.1813142996299
 30
0.0
 11
130.7033895450302
 21
128.1813142996299
 31
0.0
  0
LINE
  5
280
330
70
100
AcDbEntity
  8
Layer 1
 62
   250
370
     9
100
AcDbLine
 10
131.0592027970258
 20
128.5371275516256
 30
0.0
 11
131.0592027970258
 21
128.5371275516256
 31
0.0
  0
LINE
  5
281
330
70
100
AcDbEntity
  8
Layer 1
 62
   250
370
     9
100
AcDbLine
 10
131.4150560685076
 20
128.8929808231077
 30
0.0
 11
131.4150560685076
 21
128.8929808231077
 31
0.0
  0
LINE
  5
282
330
70
100
AcDbEntity
  8
Layer 1
 62
   250
370
     9
100
AcDbLine
 10
128.3764565186796
 20
125.1429148472327
 30
0.0
 11
128.3764565186796
 21
125.1429148472327
 31
0.0
  0
LINE
  5
283
330
70
100
AcDbEntity
  8
Layer 1
 62
   250
370
     9
100
AcDbLine
 10
128.7325098875925
 20
125.4989281966594
 30
0.0
 11
128.7325098875925
 21
125.4989281966594
 31
0.0
  0
LINE
  5
284
330
70
100
AcDbEntity
  8
Layer 1
 62
   250
370
     9
100
AcDbLine
 10
129.0883231395878
 20
125.8547814681412
 30
0.0
 11
129.0883231395878
 21
125.8547814681412
 31
0.0
  0
LINE
  5
285
330
70
100
AcDbEntity
  8
Layer 1
 62
   250
370
     9
100
AcDbLine
 10
129.4441764110697
 20
126.2377679512815
 30
0.0
 11
129.4441764110697
 21
126.2377679512815
 31
0.0
  0
LINE
  5
286
330
70
100
AcDbEntity
  8
Layer 1
 62
   250
370
     9
100
AcDbLine
 10
129.8000337334265
 20
126.5938247025605
 30
0.0
 11
129.8000337334265
 21
126.5938247025605
 31
0.0
  0
LINE
  5
287
330
70
100
AcDbEntity
  8
Layer 1
 62
   250
370
     9
100
AcDbLine
 10
130.1558429345471
 20
126.9496345721897
 30
0.0
 11
130.1558429345471
 21
126.9496345721897
 31
0.0
  0
LINE
  5
288
330
70
100
AcDbEntity
  8
Layer 1
 62
   250
370
     9
100
AcDbLine
 10
130.511696206029
 20
127.3054878436719
 30
0.0
 11
130.511696206029
 21
127.3054878436719
 31
0.0
  0
LINE
  5
289
330
70
100
AcDbEntity
  8
Layer 1
 62
   250
370
     9
100
AcDbLine
 10
130.8675094580246
 20
127.6613010956672
 30
0.0
 11
130.8675094580246
 21
127.6613010956672
 31
0.0
  0
LINE
  5
28A
330
70
100
AcDbEntity
  8
Layer 1
 62
   250
370
     9
100
AcDbLine
 10
131.2235628269372
 20
128.017154367149
 30
0.0
 11
131.2235628269372
 21
128.017154367149
 31
0.0
  0
LINE
  5
28B
330
70
100
AcDbEntity
  8
Layer 1
 62
   250
370
     9
100
AcDbLine
 10
128.5408165485913
 20
124.6227415653256
 30
0.0
 11
128.5408165485913
 21
124.6227415653256
 31
0.0
  0
LINE
  5
28C
330
70
100
AcDbEntity
  8
Layer 1
 62
   250
370
     9
100
AcDbLine
 10
128.8966298005869
 20
124.9787549147521
 30
0.0
 11
128.8966298005869
 21
124.9787549147521
 31
0.0
  0
LINE
  5
28D
330
70
100
AcDbEntity
  8
Layer 1
 62
   250
370
     9
100
AcDbLine
 10
129.2524830720684
 20
125.3346081862336
 30
0.0
 11
129.2524830720684
 21
125.3346081862336
 31
0.0
  0
LINE
  5
28E
330
70
100
AcDbEntity
  8
Layer 1
 62
   250
370
     9
100
AcDbLine
 10
129.6084964214955
 20
125.6904214382295
 30
0.0
 11
129.6084964214955
 21
125.6904214382295
 31
0.0
  0
LINE
  5
28F
330
70
100
AcDbEntity
  8
Layer 1
 62
   250
370
     9
100
AcDbLine
 10
129.9915229241216
 20
126.0462747097114
 30
0.0
 11
129.9915229241216
 21
126.0462747097114
 31
0.0
  0
LINE
  5
290
330
70
100
AcDbEntity
  8
Layer 1
 62
   250
370
     9
100
AcDbLine
 10
130.347536273548
 20
126.4021313587167
 30
0.0
 11
130.347536273548
 21
126.4021313587167
 31
0.0
  0
LINE
  5
291
330
70
100
AcDbEntity
  8
Layer 1
 62
   250
370
     9
100
AcDbLine
 10
130.7033895450302
 20
126.7579412331891
 30
0.0
 11
130.7033895450302
 21
126.7579412331891
 31
0.0
  0
LINE
  5
292
330
70
100
AcDbEntity
  8
Layer 1
 62
   250
370
     9
100
AcDbLine
 10
131.0592027970258
 20
127.1139946021017
 30
0.0
 11
131.0592027970258
 21
127.1139946021017
 31
0.0
  0
LINE
  5
293
330
70
100
AcDbEntity
  8
Layer 1
 62
   250
370
     9
100
AcDbLine
 10
131.4150560685076
 20
127.4698078540971
 30
0.0
 11
131.4150560685076
 21
127.4698078540971
 31
0.0
  0
LINE
  5
294
330
70
100
AcDbEntity
  8
Layer 1
 62
   250
370
     9
100
AcDbLine
 10
128.3764565186796
 20
123.7195417807916
 30
0.0
 11
128.3764565186796
 21
123.7195417807916
 31
0.0
  0
LINE
  5
295
330
70
100
AcDbEntity
  8
Layer 1
 62
   250
370
     9
100
AcDbLine
 10
128.7325098875925
 20
124.0753983710186
 30
0.0
 11
128.7325098875925
 21
124.0753983710186
 31
0.0
  0
LINE
  5
296
330
70
100
AcDbEntity
  8
Layer 1
 62
   250
370
     9
100
AcDbLine
 10
129.0883231395878
 20
124.4312483237552
 30
0.0
 11
129.0883231395878
 21
124.4312483237552
 31
0.0
  0
LINE
  5
297
330
70
100
AcDbEntity
  8
Layer 1
 62
   250
370
     9
100
AcDbLine
 10
129.4441764110697
 20
124.7870615757509
 30
0.0
 11
129.4441764110697
 21
124.7870615757509
 31
0.0
  0
LINE
  5
298
330
70
100
AcDbEntity
  8
Layer 1
 62
   250
370
     9
100
AcDbLine
 10
129.8000337334265
 20
125.1429148472327
 30
0.0
 11
129.8000337334265
 21
125.1429148472327
 31
0.0
  0
LINE
  5
299
330
70
100
AcDbEntity
  8
Layer 1
 62
   250
370
     9
100
AcDbLine
 10
130.1558429345471
 20
125.4989281966594
 30
0.0
 11
130.1558429345471
 21
125.4989281966594
 31
0.0
  0
LINE
  5
29A
330
70
100
AcDbEntity
  8
Layer 1
 62
   250
370
     9
100
AcDbLine
 10
130.511696206029
 20
125.8547814681412
 30
0.0
 11
130.511696206029
 21
125.8547814681412
 31
0.0
  0
LINE
  5
29B
330
70
100
AcDbEntity
  8
Layer 1
 62
   250
370
     9
100
AcDbLine
 10
130.8675094580246
 20
126.2377679512815
 30
0.0
 11
130.8675094580246
 21
126.2377679512815
 31
0.0
  0
LINE
  5
29C
330
70
100
AcDbEntity
  8
Layer 1
 62
   250
370
     9
100
AcDbLine
 10
131.2235628269372
 20
126.5938247025605
 30
0.0
 11
131.2235628269372
 21
126.5938247025605
 31
0.0
  0
LINE
  5
29D
330
70
100
AcDbEntity
  8
Layer 1
 62
   250
370
     9
100
AcDbLine
 10
128.8966298005869
 20
123.555221770366
 30
0.0
 11
128.8966298005869
 21
123.555221770366
 31
0.0
  0
LINE
  5
29E
330
70
100
AcDbEntity
  8
Layer 1
 62
   250
370
     9
100
AcDbLine
 10
129.2524830720684
 20
123.9110750418478
 30
0.0
 11
129.2524830720684
 21
123.9110750418478
 31
0.0
  0
LINE
  5
29F
330
70
100
AcDbEntity
  8
Layer 1
 62
   250
370
     9
100
AcDbLine
 10
129.6084964214955
 20
124.2668882938435
 30
0.0
 11
129.6084964214955
 21
124.2668882938435
 31
0.0
  0
LINE
  5
2A0
330
70
100
AcDbEntity
  8
Layer 1
 62
   250
370
     9
100
AcDbLine
 10
129.9915229241216
 20
124.6227415653256
 30
0.0
 11
129.9915229241216
 21
124.6227415653256
 31
0.0
  0
LINE
  5
2A1
330
70
100
AcDbEntity
  8
Layer 1
 62
   250
370
     9
100
AcDbLine
 10
130.347536273548
 20
124.9787549147521
 30
0.0
 11
130.347536273548
 21
124.9787549147521
 31
0.0
  0
LINE
  5
2A2
330
70
100
AcDbEntity
  8
Layer 1
 62
   250
370
     9
100
AcDbLine
 10
130.7033895450302
 20
125.3346081862336
 30
0.0
 11
130.7033895450302
 21
125.3346081862336
 31
0.0
  0
LINE
  5
2A3
330
70
100
AcDbEntity
  8
Layer 1
 62
   250
370
     9
100
AcDbLine
 10
131.0592027970258
 20
125.6904214382295
 30
0.0
 11
131.0592027970258
 21
125.6904214382295
 31
0.0
  0
LINE
  5
2A4
330
70
100
AcDbEntity
  8
Layer 1
 62
   250
370
     9
100
AcDbLine
 10
131.4150560685076
 20
126.0462747097114
 30
0.0
 11
131.4150560685076
 21
126.0462747097114
 31
0.0
  0
LINE
  5
2A5
330
70
100
AcDbEntity
  8
Layer 1
 62
   250
370
     9
100
AcDbLine
 10
129.8000337334265
 20
123.7195417807916
 30
0.0
 11
129.8000337334265
 21
123.7195417807916
 31
0.0
  0
LINE
  5
2A6
330
70
100
AcDbEntity
  8
Layer 1
 62
   250
370
     9
100
AcDbLine
 10
130.1558429345471
 20
124.0753983710186
 30
0.0
 11
130.1558429345471
 21
124.0753983710186
 31
0.0
  0
LINE
  5
2A7
330
70
100
AcDbEntity
  8
Layer 1
 62
   250
370
     9
100
AcDbLine
 10
130.511696206029
 20
124.4312483237552
 30
0.0
 11
130.511696206029
 21
124.4312483237552
 31
0.0
  0
LINE
  5
2A8
330
70
100
AcDbEntity
  8
Layer 1
 62
   250
370
     9
100
AcDbLine
 10
130.8675094580246
 20
124.7870615757509
 30
0.0
 11
130.8675094580246
 21
124.7870615757509
 31
0.0
  0
LINE
  5
2A9
330
70
100
AcDbEntity
  8
Layer 1
 62
   250
370
     9
100
AcDbLine
 10
131.2235628269372
 20
125.1429148472327
 30
0.0
 11
131.2235628269372
 21
125.1429148472327
 31
0.0
  0
LINE
  5
2AA
330
70
100
AcDbEntity
  8
Layer 1
 62
   250
370
     9
100
AcDbLine
 10
130.347536273548
 20
123.555221770366
 30
0.0
 11
130.347536273548
 21
123.555221770366
 31
0.0
  0
LINE
  5
2AB
330
70
100
AcDbEntity
  8
Layer 1
 62
   250
370
     9
100
AcDbLine
 10
130.7033895450302
 20
123.9110750418478
 30
0.0
 11
130.7033895450302
 21
123.9110750418478
 31
0.0
  0
LINE
  5
2AC
330
70
100
AcDbEntity
  8
Layer 1
 62
   250
370
     9
100
AcDbLine
 10
131.0592027970258
 20
124.2668882938435
 30
0.0
 11
131.0592027970258
 21
124.2668882938435
 31
0.0
  0
LINE
  5
2AD
330
70
100
AcDbEntity
  8
Layer 1
 62
   250
370
     9
100
AcDbLine
 10
131.4150560685076
 20
124.6227415653256
 30
0.0
 11
131.4150560685076
 21
124.6227415653256
 31
0.0
  0
LINE
  5
2AE
330
70
100
AcDbEntity
  8
Layer 1
 62
   250
370
     9
100
AcDbLine
 10
131.2235628269372
 20
123.7195417807916
 30
0.0
 11
131.2235628269372
 21
123.7195417807916
 31
0.0
  0
LINE
  5
2AF
330
70
100
AcDbEntity
  8
Layer 1
 62
   250
370
     9
100
AcDbLine
 10
132.1267225919851
 20
123.3088217937002
 30
0.0
 11
132.1267225919851
 21
167.9547651470991
 31
0.0
  0
LINE
  5
2B0
330
70
100
AcDbEntity
  8
Layer 1
 62
   250
370
     9
100
AcDbLine
 10
161.224490828796
 20
123.3088217937002
 30
0.0
 11
132.1267225919851
 21
137.8442193452487
 31
0.0
  0
LINE
  5
2B1
330
70
100
AcDbEntity
  8
Layer 1
 62
   250
370
     9
100
AcDbLine
 10
132.1267225919851
 20
123.3088217937002
 30
0.0
 11
161.224490828796
 21
137.8442193452487
 31
0.0
  0
LWPOLYLINE
  5
2B2
330
70
100
AcDbEntity
  8
Layer 1
 62
   250
370
     9
100
AcDbPolyline
 90
        4
 70
     0
 43
0.0
 10
161.8814507146083
 20
167.9547651470991
 10
161.8814507146083
 20
113.5913701883614
 10
165.768503391819
 20
113.5913701883614
 10
165.768503391819
 20
167.9547651470991
  0
LINE
  5
2B3
330
70
100
AcDbEntity
  8
Layer 1
 62
   250
370
     9
100
AcDbLine
 10
131.4971360347479
 20
167.9547651470991
 30
0.0
 11
131.4971360347479
 21
123.4184351664608
 31
0.0
  0
LINE
  5
2B4
330
70
100
AcDbEntity
  8
Layer 1
 62
   250
370
     9
100
AcDbLine
 10
128.2672433407809
 20
167.9547651470991
 30
0.0
 11
128.2672433407809
 21
123.4184351664608
 31
0.0
  0
LINE
  5
2B5
330
70
100
AcDbEntity
  8
Layer 1
 62
   250
370
     9
100
AcDbLine
 10
94.2694491915199
 20
107.268171306901
 30
0.0
 11
95.41900893323335
 21
108.6641710447671
 31
0.0
  0
LINE
  5
2B6
330
70
100
AcDbEntity
  8
Layer 1
 62
   250
370
     9
100
AcDbLine
 10
111.6513527590334
 20
105.7623580988439
 30
0.0
 11
112.8284859267536
 21
107.1583607280939
 31
0.0
  0
LINE
  5
2B7
330
70
100
AcDbEntity
  8
Layer 1
 62
   250
370
     9
100
AcDbLine
 10
115.210085571283
 20
87.75086797409327
 30
0.0
 11
116.1953253025708
 21
88.90067026288056
 31
0.0
  0
LINE
  5
2B8
330
70
100
AcDbEntity
  8
Layer 1
 62
   250
370
     9
100
AcDbLine
 10
129.0334164044918
 20
104.2299719519349
 30
0.0
 11
130.2103894942671
 21
105.6259716898006
 31
0.0
  0
LINE
  5
2B9
330
70
100
AcDbEntity
  8
Layer 1
 62
   250
370
     9
100
AcDbLine
 10
143.0758139052776
 20
120.954715536205
 30
0.0
 11
143.7054004625148
 21
121.6937553882579
 31
0.0
  0
LINE
  5
2BA
330
70
100
AcDbEntity
  8
Layer 1
 62
   250
370
     9
100
AcDbLine
 10
132.4005000137946
 20
85.99925743852443
 30
0.0
 11
133.5776290649465
 21
87.39521480004224
 31
0.0
  0
LINE
  5
2BB
330
70
100
AcDbEntity
  8
Layer 1
 62
   250
370
     9
100
AcDbLine
 10
146.442693300581
 20
102.72455893874
 30
0.0
 11
147.6202266631634
 21
104.0928251726543
 31
0.0
  0
LINE
  5
2BC
330
70
100
AcDbEntity
  8
Layer 1
 62
   250
370
     9
100
AcDbLine
 10
149.8099728907466
 20
84.46606854503018
 30
0.0
 11
150.9871060584665
 21
85.8620682828959
 31
0.0
  0
LINE
  5
2BD
330
70
100
AcDbEntity
  8
Layer 1
 62
   250
370
     9
100
AcDbLine
 10
143.0758139052776
 20
120.954715536205
 30
0.0
 11
144.5269204756701
 21
120.8179289323001
 31
0.0
  0
LINE
  5
2BE
330
70
100
AcDbEntity
  8
Layer 1
 62
   250
370
     9
100
AcDbLine
 10
94.2694491915199
 20
107.268171306901
 30
0.0
 11
95.72015556705023
 21
107.1583607280939
 31
0.0
  0
LINE
  5
2BF
330
70
100
AcDbEntity
  8
Layer 1
 62
   250
370
     9
100
AcDbLine
 10
111.6513527590334
 20
105.7623580988439
 30
0.0
 11
113.1020591345643
 21
105.6259716898006
 31
0.0
  0
LINE
  5
2C0
330
70
100
AcDbEntity
  8
Layer 1
 62
   250
370
     9
100
AcDbLine
 10
129.0334164044918
 20
104.2299719519349
 30
0.0
 11
130.4843228774536
 21
104.0928251726543
 31
0.0
  0
LINE
  5
2C1
330
70
100
AcDbEntity
  8
Layer 1
 62
   250
370
     9
100
AcDbLine
 10
146.442693300581
 20
102.72455893874
 30
0.0
 11
147.8937998709735
 21
102.5873721399725
 31
0.0
  0
LINE
  5
2C2
330
70
100
AcDbEntity
  8
Layer 1
 62
   250
370
     9
100
AcDbLine
 10
115.8942186882398
 20
87.44996385070217
 30
0.0
 11
116.4692987052431
 21
87.39521480004224
 31
0.0
  0
LINE
  5
2C3
330
70
100
AcDbEntity
  8
Layer 1
 62
   250
370
     9
100
AcDbLine
 10
132.4005000137946
 20
85.99925743852443
 30
0.0
 11
133.8514023701881
 21
85.8620682828959
 31
0.0
  0
LINE
  5
2C4
330
70
100
AcDbEntity
  8
Layer 1
 62
   250
370
     9
100
AcDbLine
 10
149.8099728907466
 20
84.46606854503018
 30
0.0
 11
151.2606792662769
 21
84.35665526970035
 31
0.0
  0
LINE
  5
2C5
330
70
100
AcDbEntity
  8
Layer 1
 62
   250
370
     9
100
AcDbLine
 10
95.72015556705023
 20
107.1583607280939
 30
0.0
 11
95.41900893323335
 21
108.6641710447671
 31
0.0
  0
LINE
  5
2C6
330
70
100
AcDbEntity
  8
Layer 1
 62
   250
370
     9
100
AcDbLine
 10
116.4692987052431
 20
87.39521480004224
 30
0.0
 11
116.1953253025708
 21
88.90067026288056
 31
0.0
  0
LINE
  5
2C7
330
70
100
AcDbEntity
  8
Layer 1
 62
   250
370
     9
100
AcDbLine
 10
113.1020591345643
 20
105.6259716898006
 30
0.0
 11
112.8284859267536
 21
107.1583607280939
 31
0.0
  0
LINE
  5
2C8
330
70
100
AcDbEntity
  8
Layer 1
 62
   250
370
     9
100
AcDbLine
 10
133.8514023701881
 20
85.8620682828959
 30
0.0
 11
133.5776290649465
 21
87.39521480004224
 31
0.0
  0
LINE
  5
2C9
330
70
100
AcDbEntity
  8
Layer 1
 62
   250
370
     9
100
AcDbLine
 10
130.4843228774536
 20
104.0928251726543
 30
0.0
 11
130.2103894942671
 21
105.6259716898006
 31
0.0
  0
LINE
  5
2CA
330
70
100
AcDbEntity
  8
Layer 1
 62
   250
370
     9
100
AcDbLine
 10
151.2606792662769
 20
84.35665526970035
 30
0.0
 11
150.9871060584665
 21
85.8620682828959
 31
0.0
  0
LINE
  5
2CB
330
70
100
AcDbEntity
  8
Layer 1
 62
   250
370
     9
100
AcDbLine
 10
147.8937998709735
 20
102.5873721399725
 30
0.0
 11
147.6202266631634
 21
104.0928251726543
 31
0.0
  0
LINE
  5
2CC
330
70
100
AcDbEntity
  8
Layer 1
 62
   250
370
     9
100
AcDbLine
 10
144.5269204756701
 20
120.8179289323001
 30
0.0
 11
144.3627605431895
 21
121.6937553882579
 31
0.0
  0
LINE
  5
2CD
330
70
100
AcDbEntity
  8
Layer 1
 62
   250
370
     9
100
AcDbLine
 10
102.2076744589361
 20
96.70210649623463
 30
0.0
 11
104.0962740527024
 21
98.67298615367198
 31
0.0
  0
LINE
  5
2CE
330
70
100
AcDbEntity
  8
Layer 1
 62
   250
370
     9
100
AcDbLine
 10
124.8728344653605
 20
120.2977556503925
 30
0.0
 11
126.1867503105823
 21
121.6937553882579
 31
0.0
  0
LINE
  5
2CF
330
70
100
AcDbEntity
  8
Layer 1
 62
   250
370
     9
100
AcDbLine
 10
128.1028833108692
 20
92.6782672151187
 30
0.0
 11
129.9915229241216
 21
94.64914687255605
 31
0.0
  0
LINE
  5
2D0
330
70
100
AcDbEntity
  8
Layer 1
 62
   250
370
     9
100
AcDbLine
 10
150.7678438740256
 20
116.301489795283
 30
0.0
 11
152.6570391795187
 21
118.2721725274335
 31
0.0
  0
LINE
  5
2D1
330
70
100
AcDbEntity
  8
Layer 1
 62
   250
370
     9
100
AcDbLine
 10
153.9705587562816
 20
88.65402773914054
 30
0.0
 11
155.8597586423412
 21
90.6253075914401
 31
0.0
  0
LINE
  5
2D2
330
70
100
AcDbEntity
  8
Layer 1
 62
   250
370
     9
100
AcDbLine
 10
104.3700507664034
 20
96.34645332218362
 30
0.0
 11
104.0962740527024
 21
98.67298615367198
 31
0.0
  0
LINE
  5
2D3
330
70
100
AcDbEntity
  8
Layer 1
 62
   250
370
     9
100
AcDbLine
 10
130.2379229007874
 20
92.34998736964369
 30
0.0
 11
129.9915229241216
 21
94.64914687255605
 31
0.0
  0
LINE
  5
2D4
330
70
100
AcDbEntity
  8
Layer 1
 62
   250
370
     9
100
AcDbLine
 10
127.035403535396
 20
119.969275707486
 30
0.0
 11
126.8437101963951
 21
121.6937553882579
 31
0.0
  0
LINE
  5
2D5
330
70
100
AcDbEntity
  8
Layer 1
 62
   250
370
     9
100
AcDbLine
 10
156.1333318501516
 20
88.3261480885271
 30
0.0
 11
155.8597586423412
 21
90.6253075914401
 31
0.0
  0
LINE
  5
2D6
330
70
100
AcDbEntity
  8
Layer 1
 62
   250
370
     9
100
AcDbLine
 10
152.9028835178789
 20
115.9728097549455
 30
0.0
 11
152.6570391795187
 21
118.2721725274335
 31
0.0
  0
LINE
  5
2D7
330
70
100
AcDbEntity
  8
Layer 1
 62
   250
370
     9
100
AcDbLine
 10
124.8728344653605
 20
120.2977556503925
 30
0.0
 11
127.035403535396
 21
119.969275707486
 31
0.0
  0
LINE
  5
2D8
330
70
100
AcDbEntity
  8
Layer 1
 62
   250
370
     9
100
AcDbLine
 10
150.7678438740256
 20
116.301489795283
 30
0.0
 11
152.9028835178789
 21
115.9728097549455
 31
0.0
  0
LINE
  5
2D9
330
70
100
AcDbEntity
  8
Layer 1
 62
   250
370
     9
100
AcDbLine
 10
102.2076744589361
 20
96.70210649623463
 30
0.0
 11
104.3700507664034
 21
96.34645332218362
 31
0.0
  0
LINE
  5
2DA
330
70
100
AcDbEntity
  8
Layer 1
 62
   250
370
     9
100
AcDbLine
 10
128.1028833108692
 20
92.6782672151187
 30
0.0
 11
130.2379229007874
 21
92.34998736964369
 31
0.0
  0
LINE
  5
2DB
330
70
100
AcDbEntity
  8
Layer 1
 62
   250
370
     9
100
AcDbLine
 10
153.9705587562816
 20
88.68180126257813
 30
0.0
 11
156.1333318501516
 21
88.3261480885271
 31
0.0
  0
LINE
  5
2DC
330
70
100
AcDbEntity
  8
Layer 1
 62
   250
370
     9
100
AcDbLine
 10
89.83484990382647
 20
116.0277164900415
 30
0.0
 11
91.53215635345402
 21
116.6846763758544
 31
0.0
  0
LINE
  5
2DD
330
70
100
AcDbEntity
  8
Layer 1
 62
   250
370
     9
100
AcDbLine
 10
104.2879673917036
 20
106.2825313807513
 30
0.0
 11
105.9851137633862
 21
106.9391310911878
 31
0.0
  0
LINE
  5
2DE
330
70
100
AcDbEntity
  8
Layer 1
 62
   250
370
     9
100
AcDbLine
 10
124.6812972779009
 20
114.0842101611792
 30
0.0
 11
126.3784436495835
 21
114.740969949561
 31
0.0
  0
LINE
  5
2DF
330
70
100
AcDbEntity
  8
Layer 1
 62
   250
370
     9
100
AcDbLine
 10
118.7684582081565
 20
96.51021305980263
 30
0.0
 11
120.4656045798388
 21
97.16717294561485
 31
0.0
  0
LINE
  5
2E0
330
70
100
AcDbEntity
  8
Layer 1
 62
   250
370
     9
100
AcDbLine
 10
139.1617923817266
 20
104.3394252467509
 30
0.0
 11
140.8587343686049
 21
104.9959849377015
 31
0.0
  0
LINE
  5
2E1
330
70
100
AcDbEntity
  8
Layer 1
 62
   250
370
     9
100
AcDbLine
 10
133.248949024609
 20
86.76603081389902
 30
0.0
 11
134.9462554742369
 21
87.42258812861761
 31
0.0
  0
LINE
  5
2E2
330
70
100
AcDbEntity
  8
Layer 1
 62
   250
370
     9
100
AcDbLine
 10
153.6149456017167
 20
94.56706690631607
 30
0.0
 11
155.3392251850574
 21
95.22402679212829
 31
0.0
  0
LINE
  5
2E3
330
70
100
AcDbEntity
  8
Layer 1
 62
   250
370
     9
100
AcDbLine
 10
145.4031071070042
 20
121.6937553882579
 30
0.0
 11
146.2512000590109
 21
121.0919023349721
 31
0.0
  0
LINE
  5
2E4
330
70
100
AcDbEntity
  8
Layer 1
 62
   250
370
     9
100
AcDbLine
 10
124.6812972779009
 20
114.0842101611792
 30
0.0
 11
125.8854035793346
 21
113.2902635740303
 31
0.0
  0
LINE
  5
2E5
330
70
100
AcDbEntity
  8
Layer 1
 62
   250
370
     9
100
AcDbLine
 10
139.1617923817266
 20
104.3394252467509
 30
0.0
 11
140.3662945906493
 21
103.5179052335952
 31
0.0
  0
LINE
  5
2E6
330
70
100
AcDbEntity
  8
Layer 1
 62
   250
370
     9
100
AcDbLine
 10
153.6149456017167
 20
94.56706690631607
 30
0.0
 11
154.8467854071019
 21
93.77332041659862
 31
0.0
  0
LINE
  5
2E7
330
70
100
AcDbEntity
  8
Layer 1
 62
   250
370
     9
100
AcDbLine
 10
89.83484990382647
 20
116.0277164900415
 30
0.0
 11
91.03935640012174
 21
115.2337699028926
 31
0.0
  0
LINE
  5
2E8
330
70
100
AcDbEntity
  8
Layer 1
 62
   250
370
     9
100
AcDbLine
 10
104.2879673917036
 20
106.2825313807513
 30
0.0
 11
105.4924738879989
 21
105.4618517768065
 31
0.0
  0
LINE
  5
2E9
330
70
100
AcDbEntity
  8
Layer 1
 62
   250
370
     9
100
AcDbLine
 10
118.7684582081565
 20
96.51021305980263
 30
0.0
 11
119.9729647044521
 21
95.71646657008454
 31
0.0
  0
LINE
  5
2EA
330
70
100
AcDbEntity
  8
Layer 1
 62
   250
370
     9
100
AcDbLine
 10
133.248949024609
 20
86.76603081389902
 30
0.0
 11
134.4534555209046
 21
85.94414824913588
 31
0.0
  0
LINE
  5
2EB
330
70
100
AcDbEntity
  8
Layer 1
 62
   250
370
     9
100
AcDbLine
 10
91.03935640012174
 20
115.2337699028926
 30
0.0
 11
91.53215635345402
 21
116.6846763758544
 31
0.0
  0
LINE
  5
2EC
330
70
100
AcDbEntity
  8
Layer 1
 62
   250
370
     9
100
AcDbLine
 10
105.4924738879989
 20
105.4618517768065
 30
0.0
 11
105.9851137633862
 21
106.9391310911878
 31
0.0
  0
LINE
  5
2ED
330
70
100
AcDbEntity
  8
Layer 1
 62
   250
370
     9
100
AcDbLine
 10
119.9729647044521
 20
95.71646657008454
 30
0.0
 11
120.4656045798388
 21
97.16717294561485
 31
0.0
  0
LINE
  5
2EE
330
70
100
AcDbEntity
  8
Layer 1
 62
   250
370
     9
100
AcDbLine
 10
125.8854035793346
 20
113.2902635740303
 30
0.0
 11
126.3784436495835
 21
114.740969949561
 31
0.0
  0
LINE
  5
2EF
330
70
100
AcDbEntity
  8
Layer 1
 62
   250
370
     9
100
AcDbLine
 10
134.4534555209046
 20
85.94414824913588
 30
0.0
 11
134.9462554742369
 21
87.42258812861761
 31
0.0
  0
LINE
  5
2F0
330
70
100
AcDbEntity
  8
Layer 1
 62
   250
370
     9
100
AcDbLine
 10
140.3662945906493
 20
103.5179052335952
 30
0.0
 11
140.8587343686049
 21
104.9959849377015
 31
0.0
  0
LINE
  5
2F1
330
70
100
AcDbEntity
  8
Layer 1
 62
   250
370
     9
100
AcDbLine
 10
146.2512000590109
 20
121.0919023349721
 30
0.0
 11
146.442693300581
 21
121.6937553882579
 31
0.0
  0
LINE
  5
2F2
330
70
100
AcDbEntity
  8
Layer 1
 62
   250
370
     9
100
AcDbLine
 10
154.8467854071019
 20
93.77332041659862
 30
0.0
 11
155.3392251850574
 21
95.22402679212829
 31
0.0
  0
LINE
  5
2F3
330
70
100
AcDbEntity
  8
Layer 1
 62
   250
370
     9
100
AcDbLine
 10
81.13021145578171
 20
119.7775823684848
 30
0.0
 11
81.13021145578171
 21
119.7775823684848
 31
0.0
  0
LINE
  5
2F4
330
70
100
AcDbEntity
  8
Layer 1
 62
   250
370
     9
100
AcDbLine
 10
93.72190258103719
 20
121.6116754220176
 30
0.0
 11
93.72190258103719
 21
121.6116754220176
 31
0.0
  0
LINE
  5
2F5
330
70
100
AcDbEntity
  8
Layer 1
 62
   250
370
     9
100
AcDbLine
 10
93.42079596670613
 20
113.5366666032107
 30
0.0
 11
93.42079596670613
 21
113.5366666032107
 31
0.0
  0
LINE
  5
2F6
330
70
100
AcDbEntity
  8
Layer 1
 62
   250
370
     9
100
AcDbLine
 10
93.14702266146493
 20
105.4618517768065
 30
0.0
 11
93.14702266146493
 21
105.4618517768065
 31
0.0
  0
LINE
  5
2F7
330
70
100
AcDbEntity
  8
Layer 1
 62
   250
370
     9
100
AcDbLine
 10
105.8756604685702
 20
115.2337699028926
 30
0.0
 11
105.8756604685702
 21
115.2337699028926
 31
0.0
  0
LINE
  5
2F8
330
70
100
AcDbEntity
  8
Layer 1
 62
   250
370
     9
100
AcDbLine
 10
105.5745538542395
 20
107.1583607280939
 30
0.0
 11
105.5745538542395
 21
107.1583607280939
 31
0.0
  0
LINE
  5
2F9
330
70
100
AcDbEntity
  8
Layer 1
 62
   250
370
     9
100
AcDbLine
 10
118.1388716509193
 20
116.79412967067
 30
0.0
 11
118.1388716509193
 21
116.79412967067
 31
0.0
  0
LINE
  5
2FA
330
70
100
AcDbEntity
  8
Layer 1
 62
   250
370
     9
100
AcDbLine
 10
105.3009806464291
 20
99.11107946933967
 30
0.0
 11
105.3009806464291
 21
99.11107946933967
 31
0.0
  0
LINE
  5
2FB
330
70
100
AcDbEntity
  8
Layer 1
 62
   250
370
     9
100
AcDbLine
 10
117.8379251145332
 20
108.7192778772936
 30
0.0
 11
117.8379251145332
 21
108.7192778772936
 31
0.0
  0
LINE
  5
2FC
330
70
100
AcDbEntity
  8
Layer 1
 62
   250
370
     9
100
AcDbLine
 10
130.7305627761744
 20
118.600649298196
 30
0.0
 11
130.7305627761744
 21
118.600649298196
 31
0.0
  0
LINE
  5
2FD
330
70
100
AcDbEntity
  8
Layer 1
 62
   250
370
     9
100
AcDbLine
 10
117.5368185002024
 20
100.6438658111106
 30
0.0
 11
117.5368185002024
 21
100.6438658111106
 31
0.0
  0
LINE
  5
2FE
330
70
100
AcDbEntity
  8
Layer 1
 62
   250
370
     9
100
AcDbLine
 10
130.4296162397887
 20
110.5260376217371
 30
0.0
 11
130.4296162397887
 21
110.5260376217371
 31
0.0
  0
LINE
  5
2FF
330
70
100
AcDbEntity
  8
Layer 1
 62
   250
370
     9
100
AcDbLine
 10
143.1856273754697
 20
120.3251289789678
 30
0.0
 11
143.1856273754697
 21
120.3251289789678
 31
0.0
  0
LINE
  5
300
330
70
100
AcDbEntity
  8
Layer 1
 62
   250
370
     9
100
AcDbLine
 10
117.2355155219088
 20
92.56885646261194
 30
0.0
 11
117.2355155219088
 21
92.56885646261194
 31
0.0
  0
LINE
  5
301
330
70
100
AcDbEntity
  8
Layer 1
 62
   250
370
     9
100
AcDbLine
 10
130.1285096254579
 20
102.4775586697805
 30
0.0
 11
130.1285096254579
 21
102.4775586697805
 31
0.0
  0
LINE
  5
302
330
70
100
AcDbEntity
  8
Layer 1
 62
   250
370
     9
100
AcDbLine
 10
142.8843206637078
 20
112.2501171076471
 30
0.0
 11
142.8843206637078
 21
112.2501171076471
 31
0.0
  0
LINE
  5
303
330
70
100
AcDbEntity
  8
Layer 1
 62
   250
370
     9
100
AcDbLine
 10
129.8547363202164
 20
94.40254936760485
 30
0.0
 11
129.8547363202164
 21
94.40254936760485
 31
0.0
  0
LINE
  5
304
330
70
100
AcDbEntity
  8
Layer 1
 62
   250
370
     9
100
AcDbLine
 10
142.5837743221839
 20
104.1748651194081
 30
0.0
 11
142.5837743221839
 21
104.1748651194081
 31
0.0
  0
LINE
  5
305
330
70
100
AcDbEntity
  8
Layer 1
 62
   250
370
     9
100
AcDbLine
 10
155.1476919240021
 20
113.8104368559377
 30
0.0
 11
155.1476919240021
 21
113.8104368559377
 31
0.0
  0
LINE
  5
306
330
70
100
AcDbEntity
  8
Layer 1
 62
   250
370
     9
100
AcDbLine
 10
129.5535896863995
 20
86.32753492713769
 30
0.0
 11
129.5535896863995
 21
86.32753492713769
 31
0.0
  0
LINE
  5
307
330
70
100
AcDbEntity
  8
Layer 1
 62
   250
370
     9
100
AcDbLine
 10
142.2820674155599
 20
96.09945305322479
 30
0.0
 11
142.2820674155599
 21
96.09945305322479
 31
0.0
  0
LINE
  5
308
330
70
100
AcDbEntity
  8
Layer 1
 62
   250
370
     9
100
AcDbLine
 10
154.8467854071019
 20
105.7354249846166
 30
0.0
 11
154.8467854071019
 21
105.7354249846166
 31
0.0
  0
LINE
  5
309
330
70
100
AcDbEntity
  8
Layer 1
 62
   250
370
     9
100
AcDbLine
 10
142.0088944026117
 20
88.02444118190305
 30
0.0
 11
142.0088944026117
 21
88.02444118190305
 31
0.0
  0
LINE
  5
30A
330
70
100
AcDbEntity
  8
Layer 1
 62
   250
370
     9
100
AcDbLine
 10
154.5458388707161
 20
97.66037309380871
 30
0.0
 11
154.5458388707161
 21
97.66037309380871
 31
0.0
  0
LINE
  5
30B
330
70
100
AcDbEntity
  8
Layer 1
 62
   250
370
     9
100
AcDbLine
 10
154.2445321589542
 20
89.58496102762541
 30
0.0
 11
154.2445321589542
 21
89.58496102762541
 31
0.0
  0
LINE
  5
30C
330
70
100
AcDbEntity
  8
Layer 1
 62
   250
370
     9
100
AcDbLine
 10
153.9432254471924
 20
81.51034935116651
 30
0.0
 11
153.9432254471924
 21
81.51034935116651
 31
0.0
  0
LINE
  5
30D
330
70
100
AcDbEntity
  8
Layer 1
 62
   250
370
     9
100
AcDbLine
 10
89.67072999083203
 20
112.9893170376445
 30
0.0
 11
89.67072999083203
 21
112.9893170376445
 31
0.0
  0
LINE
  5
30E
330
70
100
AcDbEntity
  8
Layer 1
 62
   250
370
     9
100
AcDbLine
 10
98.86796829477702
 20
114.2209998348866
 30
0.0
 11
98.86796829477702
 21
114.2209998348866
 31
0.0
  0
LINE
  5
30F
330
70
100
AcDbEntity
  8
Layer 1
 62
   250
370
     9
100
AcDbLine
 10
114.1697390074679
 20
116.2192097316113
 30
0.0
 11
114.1697390074679
 21
116.2192097316113
 31
0.0
  0
LINE
  5
310
330
70
100
AcDbEntity
  8
Layer 1
 62
   250
370
     9
100
AcDbLine
 10
120.2467380096932
 20
117.0129562213294
 30
0.0
 11
120.2467380096932
 21
117.0129562213294
 31
0.0
  0
LINE
  5
311
330
70
100
AcDbEntity
  8
Layer 1
 62
   250
370
     9
100
AcDbLine
 10
129.4166470457389
 20
118.2448360462007
 30
0.0
 11
129.4166470457389
 21
118.2448360462007
 31
0.0
  0
LINE
  5
312
330
70
100
AcDbEntity
  8
Layer 1
 62
   250
370
     9
100
AcDbLine
 10
144.745787045816
 20
120.2430490127272
 30
0.0
 11
144.745787045816
 21
120.2430490127272
 31
0.0
  0
LINE
  5
313
330
70
100
AcDbEntity
  8
Layer 1
 62
   250
370
     9
100
AcDbLine
 10
150.8229461259859
 20
121.0367955024453
 30
0.0
 11
150.8229461259859
 21
121.0367955024453
 31
0.0
  0
LINE
  5
314
330
70
100
AcDbEntity
  8
Layer 1
 62
   250
370
     9
100
AcDbLine
 10
92.46268944707669
 20
104.640334591425
 30
0.0
 11
92.46268944707669
 21
104.640334591425
 31
0.0
  0
LINE
  5
315
330
70
100
AcDbEntity
  8
Layer 1
 62
   250
370
     9
100
AcDbLine
 10
107.7918334883433
 20
106.6663182536153
 30
0.0
 11
107.7918334883433
 21
106.6663182536153
 31
0.0
  0
LINE
  5
316
330
70
100
AcDbEntity
  8
Layer 1
 62
   250
370
     9
100
AcDbLine
 10
113.8688324905686
 20
107.459707466955
 30
0.0
 11
113.8688324905686
 21
107.459707466955
 31
0.0
  0
LINE
  5
317
330
70
100
AcDbEntity
  8
Layer 1
 62
   250
370
     9
100
AcDbLine
 10
123.0386974659382
 20
108.6641710447671
 30
0.0
 11
123.0386974659382
 21
108.6641710447671
 31
0.0
  0
LINE
  5
318
330
70
100
AcDbEntity
  8
Layer 1
 62
   250
370
     9
100
AcDbLine
 10
138.3676814292596
 20
110.6901575347312
 30
0.0
 11
138.3676814292596
 21
110.6901575347312
 31
0.0
  0
LINE
  5
319
330
70
100
AcDbEntity
  8
Layer 1
 62
   250
370
     9
100
AcDbLine
 10
144.4448405094299
 20
111.4835038295871
 30
0.0
 11
144.4448405094299
 21
111.4835038295871
 31
0.0
  0
LINE
  5
31A
330
70
100
AcDbEntity
  8
Layer 1
 62
   250
370
     9
100
AcDbLine
 10
153.6149456017167
 20
112.6880103258827
 30
0.0
 11
153.6149456017167
 21
112.6880103258827
 31
0.0
  0
LINE
  5
31B
330
70
100
AcDbEntity
  8
Layer 1
 62
   250
370
     9
100
AcDbLine
 10
101.4139279692183
 20
97.11246630795026
 30
0.0
 11
101.4139279692183
 21
97.11246630795026
 31
0.0
  0
LINE
  5
31C
330
70
100
AcDbEntity
  8
Layer 1
 62
   250
370
     9
100
AcDbLine
 10
107.4907268740125
 20
97.90621279766835
 30
0.0
 11
107.4907268740125
 21
97.90621279766835
 31
0.0
  0
LINE
  5
31D
330
70
100
AcDbEntity
  8
Layer 1
 62
   250
370
     9
100
AcDbLine
 10
116.6607919468133
 20
99.11107946933967
 30
0.0
 11
116.6607919468133
 21
99.11107946933967
 31
0.0
  0
LINE
  5
31E
330
70
100
AcDbEntity
  8
Layer 1
 62
   250
370
     9
100
AcDbLine
 10
131.9897358906488
 20
101.1363055890662
 30
0.0
 11
131.9897358906488
 21
101.1363055890662
 31
0.0
  0
LINE
  5
31F
330
70
100
AcDbEntity
  8
Layer 1
 62
   250
370
     9
100
AcDbLine
 10
138.0667348928741
 20
101.9304122541597
 30
0.0
 11
138.0667348928741
 21
101.9304122541597
 31
0.0
  0
LINE
  5
320
330
70
100
AcDbEntity
  8
Layer 1
 62
   250
370
     9
100
AcDbLine
 10
147.2368399851613
 20
103.1345185555934
 30
0.0
 11
147.2368399851613
 21
103.1345185555934
 31
0.0
  0
LINE
  5
321
330
70
100
AcDbEntity
  8
Layer 1
 62
   250
370
     9
100
AcDbLine
 10
125.6118303715238
 20
91.55584068506339
 30
0.0
 11
125.6118303715238
 21
91.55584068506339
 31
0.0
  0
LINE
  5
322
330
70
100
AcDbEntity
  8
Layer 1
 62
   250
370
     9
100
AcDbLine
 10
131.6614560451734
 20
92.34998736964369
 30
0.0
 11
131.6614560451734
 21
92.34998736964369
 31
0.0
  0
LINE
  5
323
330
70
100
AcDbEntity
  8
Layer 1
 62
   250
370
     9
100
AcDbLine
 10
140.8587343686049
 20
93.58182717502819
 30
0.0
 11
140.8587343686049
 21
93.58182717502819
 31
0.0
  0
LINE
  5
324
330
70
100
AcDbEntity
  8
Layer 1
 62
   250
370
     9
100
AcDbLine
 10
156.1880832247958
 20
95.57967996617932
 30
0.0
 11
156.1880832247958
 21
95.57967996617932
 31
0.0
  0
LINE
  5
325
330
70
100
AcDbEntity
  8
Layer 1
 62
   250
370
     9
100
AcDbLine
 10
134.4808288494803
 20
84.0010020956493
 30
0.0
 11
134.4808288494803
 21
84.0010020956493
 31
0.0
  0
LINE
  5
326
330
70
100
AcDbEntity
  8
Layer 1
 62
   250
370
     9
100
AcDbLine
 10
149.7825995621712
 20
86.02618819589032
 30
0.0
 11
149.7825995621712
 21
86.02618819589032
 31
0.0
  0
LINE
  5
327
330
70
100
AcDbEntity
  8
Layer 1
 62
   250
370
     9
100
AcDbLine
 10
155.8597586423412
 20
86.82033488046998
 30
0.0
 11
155.8597586423412
 21
86.82033488046998
 31
0.0
  0
LINE
  5
328
330
70
100
AcDbEntity
  8
Layer 1
 62
   250
370
     9
100
AcDbLine
 10
148.3041596826888
 20
116.2192097316113
 30
0.0
 11
148.3041596826888
 21
116.2192097316113
 31
0.0
  0
LINE
  5
329
330
70
100
AcDbEntity
  8
Layer 1
 62
   250
370
     9
100
AcDbLine
 10
135.3566152859522
 20
116.7665562446632
 30
0.0
 11
135.3566152859522
 21
116.7665562446632
 31
0.0
  0
LINE
  5
32A
330
70
100
AcDbEntity
  8
Layer 1
 62
   250
370
     9
100
AcDbLine
 10
156.5436916618666
 20
103.2717053543608
 30
0.0
 11
156.5436916618666
 21
103.2717053543608
 31
0.0
  0
LINE
  5
32B
330
70
100
AcDbEntity
  8
Layer 1
 62
   250
370
     9
100
AcDbLine
 10
122.4093110061321
 20
117.3143029525777
 30
0.0
 11
122.4093110061321
 21
117.3143029525777
 31
0.0
  0
LINE
  5
32C
330
70
100
AcDbEntity
  8
Layer 1
 62
   250
370
     9
100
AcDbLine
 10
143.5963873820475
 20
103.8192519648438
 30
0.0
 11
143.5963873820475
 21
103.8192519648438
 31
0.0
  0
LINE
  5
32D
330
70
100
AcDbEntity
  8
Layer 1
 62
   250
370
     9
100
AcDbLine
 10
148.7148796697805
 20
100.56178584487
 30
0.0
 11
148.7148796697805
 21
100.56178584487
 31
0.0
  0
LINE
  5
32E
330
70
100
AcDbEntity
  8
Layer 1
 62
   250
370
     9
100
AcDbLine
 10
109.4616065314506
 20
117.8618095435739
 30
0.0
 11
109.4616065314506
 21
117.8618095435739
 31
0.0
  0
LINE
  5
32F
330
70
100
AcDbEntity
  8
Layer 1
 62
   250
370
     9
100
AcDbLine
 10
130.6484828099341
 20
104.366398380464
 30
0.0
 11
130.6484828099341
 21
104.366398380464
 31
0.0
  0
LINE
  5
330
330
70
100
AcDbEntity
  8
Layer 1
 62
   250
370
     9
100
AcDbLine
 10
135.7673752925297
 20
101.109332455353
 30
0.0
 11
135.7673752925297
 21
101.109332455353
 31
0.0
  0
LINE
  5
331
330
70
100
AcDbEntity
  8
Layer 1
 62
   250
370
     9
100
AcDbLine
 10
151.698772581944
 20
90.95398763177795
 30
0.0
 11
151.698772581944
 21
90.95398763177795
 31
0.0
  0
LINE
  5
332
330
70
100
AcDbEntity
  8
Layer 1
 62
   250
370
     9
100
AcDbLine
 10
96.54143867398039
 20
118.4091560566259
 30
0.0
 11
96.54143867398039
 21
118.4091560566259
 31
0.0
  0
LINE
  5
333
330
70
100
AcDbEntity
  8
Layer 1
 62
   250
370
     9
100
AcDbLine
 10
117.7009784326833
 20
104.9139049714609
 30
0.0
 11
117.7009784326833
 21
104.9139049714609
 31
0.0
  0
LINE
  5
334
330
70
100
AcDbEntity
  8
Layer 1
 62
   250
370
     9
100
AcDbLine
 10
122.8196708178478
 20
101.6564816233693
 30
0.0
 11
122.8196708178478
 21
101.6564816233693
 31
0.0
  0
LINE
  5
335
330
70
100
AcDbEntity
  8
Layer 1
 62
   250
370
     9
100
AcDbLine
 10
138.7788058889114
 20
91.5011365432487
 30
0.0
 11
138.7788058889114
 21
91.5011365432487
 31
0.0
  0
LINE
  5
336
330
70
100
AcDbEntity
  8
Layer 1
 62
   250
370
     9
100
AcDbLine
 10
83.5937309886064
 20
118.9567026671089
 30
0.0
 11
83.5937309886064
 21
118.9567026671089
 31
0.0
  0
LINE
  5
337
330
70
100
AcDbEntity
  8
Layer 1
 62
   250
370
     9
100
AcDbLine
 10
104.7534374540904
 20
105.4618517768065
 30
0.0
 11
104.7534374540904
 21
105.4618517768065
 31
0.0
  0
LINE
  5
338
330
70
100
AcDbEntity
  8
Layer 1
 62
   250
370
     9
100
AcDbLine
 10
109.8721664405973
 20
102.2039854619701
 30
0.0
 11
109.8721664405973
 21
102.2039854619701
 31
0.0
  0
LINE
  5
339
330
70
100
AcDbEntity
  8
Layer 1
 62
   250
370
     9
100
AcDbLine
 10
125.8309009897065
 20
92.04868065788119
 30
0.0
 11
125.8309009897065
 21
92.04868065788119
 31
0.0
  0
LINE
  5
33A
330
70
100
AcDbEntity
  8
Layer 1
 62
   250
370
     9
100
AcDbLine
 10
91.80572956126413
 20
106.0090010547766
 30
0.0
 11
91.80572956126413
 21
106.0090010547766
 31
0.0
  0
LINE
  5
33B
330
70
100
AcDbEntity
  8
Layer 1
 62
   250
370
     9
100
AcDbLine
 10
96.92462204385968
 20
102.7511318775909
 30
0.0
 11
96.92462204385968
 21
102.7511318775909
 31
0.0
  0
LINE
  5
33C
330
70
100
AcDbEntity
  8
Layer 1
 62
   250
370
     9
100
AcDbLine
 10
112.8831925644182
 20
92.59618724887808
 30
0.0
 11
112.8831925644182
 21
92.59618724887808
 31
0.0
  0
LINE
  5
33D
330
70
100
AcDbEntity
  8
Layer 1
 62
   250
370
     9
100
AcDbLine
 10
155.7222116681977
 20
113.7008234831771
 30
0.0
 11
155.7222116681977
 21
113.7008234831771
 31
0.0
  0
LINE
  5
33E
330
70
100
AcDbEntity
  8
Layer 1
 62
   250
370
     9
100
AcDbLine
 10
141.5704008920827
 20
111.2644771814967
 30
0.0
 11
141.5704008920827
 21
111.2644771814967
 31
0.0
  0
LINE
  5
33F
330
70
100
AcDbEntity
  8
Layer 1
 62
   250
370
     9
100
AcDbLine
 10
147.3736265890662
 20
105.9542515352759
 30
0.0
 11
147.3736265890662
 21
105.9542515352759
 31
0.0
  0
LINE
  5
340
330
70
100
AcDbEntity
  8
Layer 1
 62
   250
370
     9
100
AcDbLine
 10
156.6531449566826
 20
97.46847965737735
 30
0.0
 11
156.6531449566826
 21
97.46847965737735
 31
0.0
  0
LINE
  5
341
330
70
100
AcDbEntity
  8
Layer 1
 62
   250
370
     9
100
AcDbLine
 10
114.2791923022846
 20
120.8726755894506
 30
0.0
 11
114.2791923022846
 21
120.8726755894506
 31
0.0
  0
LINE
  5
342
330
70
100
AcDbEntity
  8
Layer 1
 62
   250
370
     9
100
AcDbLine
 10
127.418390018536
 20
108.8556642863366
 30
0.0
 11
127.418390018536
 21
108.8556642863366
 31
0.0
  0
LINE
  5
343
330
70
100
AcDbEntity
  8
Layer 1
 62
   250
370
     9
100
AcDbLine
 10
133.248949024609
 20
103.5179052335952
 30
0.0
 11
133.248949024609
 21
103.5179052335952
 31
0.0
  0
LINE
  5
344
330
70
100
AcDbEntity
  8
Layer 1
 62
   250
370
     9
100
AcDbLine
 10
142.500933985706
 20
95.0325335505585
 30
0.0
 11
142.500933985706
 21
95.0325335505585
 31
0.0
  0
LINE
  5
345
330
70
100
AcDbEntity
  8
Layer 1
 62
   250
370
     9
100
AcDbLine
 10
155.6405318968193
 20
82.98762866554843
 30
0.0
 11
155.6405318968193
 21
82.98762866554843
 31
0.0
  0
LINE
  5
346
330
70
100
AcDbEntity
  8
Layer 1
 62
   250
370
     9
100
AcDbLine
 10
100.1547148352578
 20
118.4638658712767
 30
0.0
 11
100.1547148352578
 21
118.4638658712767
 31
0.0
  0
LINE
  5
347
330
70
100
AcDbEntity
  8
Layer 1
 62
   250
370
     9
100
AcDbLine
 10
113.2939125515099
 20
106.4193179846562
 30
0.0
 11
113.2939125515099
 21
106.4193179846562
 31
0.0
  0
LINE
  5
348
330
70
100
AcDbEntity
  8
Layer 1
 62
   250
370
     9
100
AcDbLine
 10
119.0971382484937
 20
101.0815989514016
 30
0.0
 11
119.0971382484937
 21
101.0815989514016
 31
0.0
  0
LINE
  5
349
330
70
100
AcDbEntity
  8
Layer 1
 62
   250
370
     9
100
AcDbLine
 10
128.3493273212481
 20
92.62356057745346
 30
0.0
 11
128.3493273212481
 21
92.62356057745346
 31
0.0
  0
LINE
  5
34A
330
70
100
AcDbEntity
  8
Layer 1
 62
   250
370
     9
100
AcDbLine
 10
86.00250386428065
 20
116.0277164900415
 30
0.0
 11
86.00250386428065
 21
116.0277164900415
 31
0.0
  0
LINE
  5
34B
330
70
100
AcDbEntity
  8
Layer 1
 62
   250
370
     9
100
AcDbLine
 10
99.14194169744964
 20
103.9833718778376
 30
0.0
 11
99.14194169744964
 21
103.9833718778376
 31
0.0
  0
LINE
  5
34C
330
70
100
AcDbEntity
  8
Layer 1
 62
   250
370
     9
100
AcDbLine
 10
104.9449272775161
 20
98.67298615367198
 30
0.0
 11
104.9449272775161
 21
98.67298615367198
 31
0.0
  0
LINE
  5
34D
330
70
100
AcDbEntity
  8
Layer 1
 62
   250
370
     9
100
AcDbLine
 10
114.224645742564
 20
90.18721427577368
 30
0.0
 11
114.224645742564
 21
90.18721427577368
 31
0.0
  0
LWPOLYLINE
  5
34E
330
70
100
AcDbEntity
  8
Layer 1
 62
   250
370
     9
100
AcDbPolyline
 90
        3
 70
     0
 43
0.0
 10
79.54251837891508
 20
121.6937553882579
 10
159.3087180038849
 20
121.6937553882579
 10
159.3087180038849
 20
82.16690904211718
  0
LINE
  5
34F
330
70
100
AcDbEntity
  8
Layer 1
 62
   250
370
     9
100
AcDbLine
 10
131.4971360347479
 20
123.4184351664608
 30
0.0
 11
128.2672433407809
 21
123.4184351664608
 31
0.0
  0
LWPOLYLINE
  5
350
330
70
100
AcDbEntity
  8
Layer 1
 62
   250
370
     9
100
AcDbPolyline
 90
        5
 70
     0
 43
0.0
 10
127.4459234250566
 20
150.7917237224999
 10
128.2672433407809
 20
150.7917237224999
 10
128.2672433407809
 20
121.6937553882579
 10
125.009617142862
 20
121.6937553882579
 10
125.009617142862
 20
148.3555775182503
  0
SPLINE
  5
351
330
70
100
AcDbEntity
  8
Layer 1
 62
   250
370
     9
100
AcDbSpline
210
0.0
220
0.0
230
1.0
 70
     8
 71
     3
 72
     8
 73
     4
 74
     0
 42
0.0000000001
 43
0.0000000001
 40
0.0
 40
0.0
 40
0.0
 40
0.0
 40
1.0
 40
1.0
 40
1.0
 40
1.0
 10
127.4596100893443
 20
150.7917237224999
 30
0.0
 10
126.1216786259861
 20
150.7917237224999
 30
0.0
 10
125.0371505493827
 20
149.7069955484657
 30
0.0
 10
125.0371505493827
 20
148.3692641825383
 30
0.0
  0
LINE
  5
352
330
70
100
AcDbEntity
  8
Layer 1
 62
   250
370
     9
100
AcDbLine
 10
132.1267225919851
 20
122.4877019754067
 30
0.0
 11
135.6030552821042
 21
122.4877019754067
 31
0.0
  0
LINE
  5
353
330
70
100
AcDbEntity
  8
Layer 1
 62
   250
370
     9
100
AcDbLine
 10
137.2180816680603
 20
122.4877019754067
 30
0.0
 11
140.4757078659788
 21
122.4877019754067
 31
0.0
  0
LINE
  5
354
330
70
100
AcDbEntity
  8
Layer 1
 62
   250
370
     9
100
AcDbLine
 10
142.0905741739901
 20
122.4877019754067
 30
0.0
 11
145.3206669653879
 21
122.4877019754067
 31
0.0
  0
LINE
  5
355
330
70
100
AcDbEntity
  8
Layer 1
 62
   250
370
     9
100
AcDbLine
 10
146.9358934487752
 20
122.4877019754067
 30
0.0
 11
150.1655860453108
 21
122.4877019754067
 31
0.0
  0
LINE
  5
356
330
70
100
AcDbEntity
  8
Layer 1
 62
   250
370
     9
100
AcDbLine
 10
151.7808525481846
 20
122.4877019754067
 30
0.0
 11
155.0109053200963
 21
122.4877019754067
 31
0.0
  0
LINE
  5
357
330
70
100
AcDbEntity
  8
Layer 1
 62
   250
370
     9
100
AcDbLine
 10
156.6257716281072
 20
122.4877019754067
 30
0.0
 11
160.1020642987407
 21
122.4877019754067
 31
0.0
  0
LINE
  5
358
330
70
100
AcDbEntity
  8
Layer 1
 62
   250
370
     9
100
AcDbLine
 10
161.224490828796
 20
123.3088217937002
 30
0.0
 11
161.224490828796
 21
167.9547651470991
 31
0.0
  0
LWPOLYLINE
  5
359
330
70
100
AcDbEntity
  8
Layer 1
 62
   250
370
     9
100
AcDbPolyline
 90
       13
 70
     0
 43
0.0
 10
161.224490828796
 20
123.3088217937002
 10
132.1267225919851
 20
123.3088217937002
 10
132.1267225919851
 20
137.8442193452487
 10
161.224490828796
 20
137.8442193452487
 10
161.224490828796
 20
123.3088217937002
 10
132.1267225919851
 20
123.3088217937002
 10
132.1267225919851
 20
137.8442193452487
 10
161.224490828796
 20
137.8442193452487
 10
161.224490828796
 20
123.3088217937002
 10
161.224490828796
 20
137.8442193452487
 10
132.1267225919851
 20
137.8442193452487
 10
132.1267225919851
 20
123.3088217937002
 10
161.224490828796
 20
123.3088217937002
  0
LWPOLYLINE
  5
35A
330
70
100
AcDbEntity
  8
Layer 1
 62
   250
370
     9
100
AcDbPolyline
 90
        4
 70
     0
 43
0.0
 10
165.768503391819
 20
128.9478875582031
 10
165.3304100761526
 20
128.9478875582031
 10
165.194023667109
 20
129.2763675011095
 10
164.7011836942911
 20
129.2763675011095
  0
LINE
  5
35B
330
70
100
AcDbEntity
  8
Layer 1
 62
   250
370
     9
100
AcDbLine
 10
164.2904286098882
 20
129.2763675011095
 30
0.0
 11
163.4966771979959
 21
129.2763675011095
 31
0.0
  0
LINE
  5
35C
330
70
100
AcDbEntity
  8
Layer 1
 62
   250
370
     9
100
AcDbLine
 10
163.0859572109035
 20
129.2763675011095
 30
0.0
 11
162.2922107211861
 21
129.2763675011095
 31
0.0
  0
LINE
  5
35D
330
70
100
AcDbEntity
  8
Layer 1
 62
   250
370
     9
100
AcDbLine
 10
161.8814507146083
 20
129.2763675011095
 30
0.0
 11
161.060370915801
 21
129.2763675011095
 31
0.0
  0
LINE
  5
35E
330
70
100
AcDbEntity
  8
Layer 1
 62
   250
370
     9
100
AcDbLine
 10
160.6769842377992
 20
129.2763675011095
 30
0.0
 11
159.8562694245266
 21
129.2763675011095
 31
0.0
  0
LINE
  5
35F
330
70
100
AcDbEntity
  8
Layer 1
 62
   250
370
     9
100
AcDbLine
 10
159.4451044129279
 20
129.2763675011095
 30
0.0
 11
158.651758118072
 21
129.2763675011095
 31
0.0
  0
LINE
  5
360
330
70
100
AcDbEntity
  8
Layer 1
 62
   250
370
     9
100
AcDbLine
 10
158.2409981114942
 20
129.2763675011095
 30
0.0
 11
157.4199183126875
 21
129.2763675011095
 31
0.0
  0
LINE
  5
361
330
70
100
AcDbEntity
  8
Layer 1
 62
   250
370
     9
100
AcDbLine
 10
157.036531634685
 20
129.2763675011095
 30
0.0
 11
156.2154118163916
 21
129.2763675011095
 31
0.0
  0
LINE
  5
362
330
70
100
AcDbEntity
  8
Layer 1
 62
   250
370
     9
100
AcDbLine
 10
155.8046518098144
 20
129.2763675011095
 30
0.0
 11
155.0109053200963
 21
129.2763675011095
 31
0.0
  0
LINE
  5
363
330
70
100
AcDbEntity
  8
Layer 1
 62
   250
370
     9
100
AcDbLine
 10
154.6001853330046
 20
129.2763675011095
 30
0.0
 11
153.8064388432872
 21
129.2763675011095
 31
0.0
  0
LINE
  5
364
330
70
100
AcDbEntity
  8
Layer 1
 62
   250
370
     9
100
AcDbLine
 10
153.3960790315715
 20
129.2763675011095
 30
0.0
 11
152.5745990379027
 21
129.2763675011095
 31
0.0
  0
LINE
  5
365
330
70
100
AcDbEntity
  8
Layer 1
 62
   250
370
     9
100
AcDbLine
 10
152.1915725352763
 20
129.2763675011095
 30
0.0
 11
151.3700925416068
 21
129.2763675011095
 31
0.0
  0
LINE
  5
366
330
70
100
AcDbEntity
  8
Layer 1
 62
   250
370
     9
100
AcDbLine
 10
150.9597327298911
 20
129.2763675011095
 30
0.0
 11
150.1655860453108
 21
129.2763675011095
 31
0.0
  0
LINE
  5
367
330
70
100
AcDbEntity
  8
Layer 1
 62
   250
370
     9
100
AcDbLine
 10
149.7552262335952
 20
129.2763675011095
 30
0.0
 11
148.9337507741596
 21
129.2763675011095
 31
0.0
  0
LINE
  5
368
330
70
100
AcDbEntity
  8
Layer 1
 62
   250
370
     9
100
AcDbLine
 10
148.5507642813438
 20
129.2763675011095
 30
0.0
 11
147.7292397436308
 21
129.2763675011095
 31
0.0
  0
LINE
  5
369
330
70
100
AcDbEntity
  8
Layer 1
 62
   250
370
     9
100
AcDbLine
 10
147.3188799319151
 20
129.2763675011095
 30
0.0
 11
146.5247732668216
 21
129.2763675011095
 31
0.0
  0
LINE
  5
36A
330
70
100
AcDbEntity
  8
Layer 1
 62
   250
370
     9
100
AcDbLine
 10
146.114413455106
 20
129.2763675011095
 30
0.0
 11
145.2928934419503
 21
129.2763675011095
 31
0.0
  0
LINE
  5
36B
330
70
100
AcDbEntity
  8
Layer 1
 62
   250
370
     9
100
AcDbLine
 10
144.9099069588104
 20
129.2763675011095
 30
0.0
 11
144.0884269651409
 21
129.2763675011095
 31
0.0
  0
LWPOLYLINE
  5
36C
330
70
100
AcDbEntity
  8
Layer 1
 62
   250
370
     9
100
AcDbPolyline
 90
        3
 70
     0
 43
0.0
 10
143.6780671534253
 20
129.2763675011095
 10
143.213000704045
 20
129.2763675011095
 10
142.6658542884242
 20
129.4678607426793
  0
LWPOLYLINE
  5
36D
330
70
100
AcDbEntity
  8
Layer 1
 62
   250
370
     9
100
AcDbPolyline
 90
        3
 70
     0
 43
0.0
 10
142.2820674155599
 20
129.5774741154399
 10
141.734920999939
 20
129.768970819587
 10
142.2820674155599
 20
129.9333273869221
  0
LWPOLYLINE
  5
36E
330
70
100
AcDbEntity
  8
Layer 1
 62
   250
370
     9
100
AcDbPolyline
 90
        3
 70
     0
 43
0.0
 10
142.6658542884242
 20
130.0701139908273
 10
143.213000704045
 20
130.2342339038221
 10
143.6780671534253
 20
130.2342339038221
  0
LINE
  5
36F
330
70
100
AcDbEntity
  8
Layer 1
 62
   250
370
     9
100
AcDbLine
 10
144.0884269651409
 20
130.2342339038221
 30
0.0
 11
144.9099069588104
 21
130.2342339038221
 31
0.0
  0
LINE
  5
370
330
70
100
AcDbEntity
  8
Layer 1
 62
   250
370
     9
100
AcDbLine
 10
145.2928934419503
 20
130.2342339038221
 30
0.0
 11
146.114413455106
 21
130.2342339038221
 31
0.0
  0
LINE
  5
371
330
70
100
AcDbEntity
  8
Layer 1
 62
   250
370
     9
100
AcDbLine
 10
146.5247732668216
 20
130.2342339038221
 30
0.0
 11
147.3188799319151
 21
130.2342339038221
 31
0.0
  0
LINE
  5
372
330
70
100
AcDbEntity
  8
Layer 1
 62
   250
370
     9
100
AcDbLine
 10
147.7292397436308
 20
130.2342339038221
 30
0.0
 11
148.5507642813438
 21
130.2342339038221
 31
0.0
  0
LINE
  5
373
330
70
100
AcDbEntity
  8
Layer 1
 62
   250
370
     9
100
AcDbLine
 10
148.9337507741596
 20
130.2342339038221
 30
0.0
 11
149.7552262335952
 21
130.2342339038221
 31
0.0
  0
LINE
  5
374
330
70
100
AcDbEntity
  8
Layer 1
 62
   250
370
     9
100
AcDbLine
 10
150.1655860453108
 20
130.2342339038221
 30
0.0
 11
150.9597327298911
 21
130.2342339038221
 31
0.0
  0
LINE
  5
375
330
70
100
AcDbEntity
  8
Layer 1
 62
   250
370
     9
100
AcDbLine
 10
151.3700925416068
 20
130.2342339038221
 30
0.0
 11
152.1915725352763
 21
130.2342339038221
 31
0.0
  0
LINE
  5
376
330
70
100
AcDbEntity
  8
Layer 1
 62
   250
370
     9
100
AcDbLine
 10
152.5745990379027
 20
130.2342339038221
 30
0.0
 11
153.3960790315715
 21
130.2342339038221
 31
0.0
  0
LINE
  5
377
330
70
100
AcDbEntity
  8
Layer 1
 62
   250
370
     9
100
AcDbLine
 10
153.8064388432872
 20
130.2342339038221
 30
0.0
 11
154.6001853330046
 21
130.2342339038221
 31
0.0
  0
LINE
  5
378
330
70
100
AcDbEntity
  8
Layer 1
 62
   250
370
     9
100
AcDbLine
 10
155.0109053200963
 20
130.2342339038221
 30
0.0
 11
155.8046518098144
 21
130.2342339038221
 31
0.0
  0
LINE
  5
379
330
70
100
AcDbEntity
  8
Layer 1
 62
   250
370
     9
100
AcDbLine
 10
156.2154118163916
 20
130.2342339038221
 30
0.0
 11
157.036531634685
 21
130.2342339038221
 31
0.0
  0
LINE
  5
37A
330
70
100
AcDbEntity
  8
Layer 1
 62
   250
370
     9
100
AcDbLine
 10
157.4199183126875
 20
130.2342339038221
 30
0.0
 11
158.2409981114942
 21
130.2342339038221
 31
0.0
  0
LINE
  5
37B
330
70
100
AcDbEntity
  8
Layer 1
 62
   250
370
     9
100
AcDbLine
 10
158.651758118072
 20
130.2342339038221
 30
0.0
 11
159.4451044129279
 21
130.2342339038221
 31
0.0
  0
LINE
  5
37C
330
70
100
AcDbEntity
  8
Layer 1
 62
   250
370
     9
100
AcDbLine
 10
159.8562694245266
 20
130.2342339038221
 30
0.0
 11
160.6769842377992
 21
130.2342339038221
 31
0.0
  0
LINE
  5
37D
330
70
100
AcDbEntity
  8
Layer 1
 62
   250
370
     9
100
AcDbLine
 10
161.060370915801
 20
130.2342339038221
 30
0.0
 11
161.8814507146083
 21
130.2342339038221
 31
0.0
  0
LINE
  5
37E
330
70
100
AcDbEntity
  8
Layer 1
 62
   250
370
     9
100
AcDbLine
 10
162.2922107211861
 20
130.2342339038221
 30
0.0
 11
163.0859572109035
 21
130.2342339038221
 31
0.0
  0
LINE
  5
37F
330
70
100
AcDbEntity
  8
Layer 1
 62
   250
370
     9
100
AcDbLine
 10
163.4966771979959
 20
130.2342339038221
 30
0.0
 11
164.2904286098882
 21
130.2342339038221
 31
0.0
  0
LWPOLYLINE
  5
380
330
70
100
AcDbEntity
  8
Layer 1
 62
   250
370
     9
100
AcDbPolyline
 90
        4
 70
     0
 43
0.0
 10
164.7011836942911
 20
130.2342339038221
 10
165.194023667109
 20
130.2342339038221
 10
165.3304100761526
 20
130.5629139441593
 10
165.768503391819
 20
130.5629139441593
  0
LINE
  5
381
330
70
100
AcDbEntity
  8
Layer 1
 62
   250
370
     9
100
AcDbLine
 10
159.3087180038849
 20
109.4032108968193
 30
0.0
 11
159.3087180038849
 21
104.5856251259859
 31
0.0
  0
LINE
  5
382
330
70
100
AcDbEntity
  8
Layer 1
 62
   250
370
     9
100
AcDbLine
 10
161.224490828796
 20
109.4032108968193
 30
0.0
 11
161.224490828796
 21
104.5856251259859
 31
0.0
  0
LINE
  5
383
330
70
100
AcDbEntity
  8
Layer 1
 62
   250
370
     9
100
AcDbLine
 10
158.651758118072
 20
104.9139049714609
 30
0.0
 11
161.8814507146083
 21
104.9139049714609
 31
0.0
  0
SPLINE
  5
384
330
70
100
AcDbEntity
  8
Layer 1
100
AcDbSpline
210
0.0
220
0.0
230
1.0
 70
    11
 71
     3
 72
    14
 73
    10
 74
     0
 42
0.0000000001
 43
0.0000000001
 40
0.0
 40
0.0
 40
0.0
 40
0.0
 40
1.0
 40
1.0
 40
1.0
 40
2.0
 40
2.0
 40
2.0
 40
3.0
 40
3.0
 40
3.0
 40
3.0
 10
159.6643711779352
 20
105.2152517027092
 30
0.0
 10
159.6643711779352
 20
105.2152517027092
 30
0.0
 10
159.5818910168331
 20
105.2703585352364
 30
0.0
 10
159.5818910168331
 20
105.2703585352364
 30
0.0
 10
159.5818910168331
 20
105.2703585352364
 30
0.0
 10
159.007411292123
 20
104.5582946425985
 30
0.0
 10
159.007411292123
 20
104.5582946425985
 30
0.0
 10
159.007411292123
 20
104.5582946425985
 30
0.0
 10
159.6643711779352
 20
105.2152517027092
 30
0.0
 10
159.6643711779352
 20
105.2152517027092
 30
0.0
  0
SPLINE
  5
385
330
70
100
AcDbEntity
  8
Layer 1
100
AcDbSpline
210
0.0
220
0.0
230
1.0
 70
    11
 71
     3
 72
    14
 73
    10
 74
     0
 42
0.0000000001
 43
0.0000000001
 40
0.0
 40
0.0
 40
0.0
 40
0.0
 40
1.0
 40
1.0
 40
1.0
 40
2.0
 40
2.0
 40
2.0
 40
3.0
 40
3.0
 40
3.0
 40
3.0
 10
159.5818910168331
 20
105.2703585352364
 30
0.0
 10
159.5818910168331
 20
105.2703585352364
 30
0.0
 10
159.007411292123
 20
104.5582946425985
 30
0.0
 10
159.007411292123
 20
104.5582946425985
 30
0.0
 10
159.007411292123
 20
104.5582946425985
 30
0.0
 10
158.9523044595962
 20
104.640334591425
 30
0.0
 10
158.9523044595962
 20
104.640334591425
 30
0.0
 10
158.9523044595962
 20
104.640334591425
 30
0.0
 10
159.5818910168331
 20
105.2703585352364
 30
0.0
 10
159.5818910168331
 20
105.2703585352364
 30
0.0
  0
HATCH
  5
386
330
70
100
AcDbEntity
  8
Layer 1
 62
   250
100
AcDbHatch
 10
0.0
 20
0.0
 30
0.0
210
0.0
220
0.0
230
1.0
  2
SOLID
 70
     1
 71
     1
 91
        2
 92
        1
 93
        1
 72
     4
 94
        3
 73
     0
 74
     0
 95
       14
 96
       10
 40
0.0
 40
0.0
 40
0.0
 40
0.0
 40
1.0
 40
1.0
 40
1.0
 40
2.0
 40
2.0
 40
2.0
 40
3.0
 40
3.0
 40
3.0
 40
3.0
 10
159.6643711779352
 20
105.2152517027092
 10
159.6643711779352
 20
105.2152517027092
 10
159.5818910168331
 20
105.2703585352364
 10
159.5818910168331
 20
105.2703585352364
 10
159.5818910168331
 20
105.2703585352364
 10
159.007411292123
 20
104.5582946425985
 10
159.007411292123
 20
104.5582946425985
 10
159.007411292123
 20
104.5582946425985
 10
159.6643711779352
 20
105.2152517027092
 10
159.6643711779352
 20
105.2152517027092
 97
        1
330
384
 92
        1
 93
        1
 72
     4
 94
        3
 73
     0
 74
     0
 95
       14
 96
       10
 40
0.0
 40
0.0
 40
0.0
 40
0.0
 40
1.0
 40
1.0
 40
1.0
 40
2.0
 40
2.0
 40
2.0
 40
3.0
 40
3.0
 40
3.0
 40
3.0
 10
159.5818910168331
 20
105.2703585352364
 10
159.5818910168331
 20
105.2703585352364
 10
159.007411292123
 20
104.5582946425985
 10
159.007411292123
 20
104.5582946425985
 10
159.007411292123
 20
104.5582946425985
 10
158.9523044595962
 20
104.640334591425
 10
158.9523044595962
 20
104.640334591425
 10
158.9523044595962
 20
104.640334591425
 10
159.5818910168331
 20
105.2703585352364
 10
159.5818910168331
 20
105.2703585352364
 97
        1
330
385
 75
     2
 76
     1
 98
        1
 10
0.0
 20
0.0
  0
SPLINE
  5
387
330
70
100
AcDbEntity
  8
Layer 1
100
AcDbSpline
210
0.0
220
0.0
230
1.0
 70
    11
 71
     3
 72
    14
 73
    10
 74
     0
 42
0.0000000001
 43
0.0000000001
 40
0.0
 40
0.0
 40
0.0
 40
0.0
 40
1.0
 40
1.0
 40
1.0
 40
2.0
 40
2.0
 40
2.0
 40
3.0
 40
3.0
 40
3.0
 40
3.0
 10
160.868837654745
 20
104.640334591425
 30
0.0
 10
160.868837654745
 20
104.640334591425
 30
0.0
 10
160.9505174261228
 20
104.5582946425985
 30
0.0
 10
160.9505174261228
 20
104.5582946425985
 30
0.0
 10
160.9505174261228
 20
104.5582946425985
 30
0.0
 10
161.5257975405573
 20
105.2703585352364
 30
0.0
 10
161.5257975405573
 20
105.2703585352364
 30
0.0
 10
161.5257975405573
 20
105.2703585352364
 30
0.0
 10
160.868837654745
 20
104.640334591425
 30
0.0
 10
160.868837654745
 20
104.640334591425
 30
0.0
  0
SPLINE
  5
388
330
70
100
AcDbEntity
  8
Layer 1
100
AcDbSpline
210
0.0
220
0.0
230
1.0
 70
    11
 71
     3
 72
    14
 73
    10
 74
     0
 42
0.0000000001
 43
0.0000000001
 40
0.0
 40
0.0
 40
0.0
 40
0.0
 40
1.0
 40
1.0
 40
1.0
 40
2.0
 40
2.0
 40
2.0
 40
3.0
 40
3.0
 40
3.0
 40
3.0
 10
160.9505174261228
 20
104.5582946425985
 30
0.0
 10
160.9505174261228
 20
104.5582946425985
 30
0.0
 10
161.5257975405573
 20
105.2703585352364
 30
0.0
 10
161.5257975405573
 20
105.2703585352364
 30
0.0
 10
161.5257975405573
 20
105.2703585352364
 30
0.0
 10
161.6078775067979
 20
105.2152517027092
 30
0.0
 10
161.6078775067979
 20
105.2152517027092
 30
0.0
 10
161.6078775067979
 20
105.2152517027092
 30
0.0
 10
160.9505174261228
 20
104.5582946425985
 30
0.0
 10
160.9505174261228
 20
104.5582946425985
 30
0.0
  0
HATCH
  5
389
330
70
100
AcDbEntity
  8
Layer 1
 62
   250
100
AcDbHatch
 10
0.0
 20
0.0
 30
0.0
210
0.0
220
0.0
230
1.0
  2
SOLID
 70
     1
 71
     1
 91
        2
 92
        1
 93
        1
 72
     4
 94
        3
 73
     0
 74
     0
 95
       14
 96
       10
 40
0.0
 40
0.0
 40
0.0
 40
0.0
 40
1.0
 40
1.0
 40
1.0
 40
2.0
 40
2.0
 40
2.0
 40
3.0
 40
3.0
 40
3.0
 40
3.0
 10
160.868837654745
 20
104.640334591425
 10
160.868837654745
 20
104.640334591425
 10
160.9505174261228
 20
104.5582946425985
 10
160.9505174261228
 20
104.5582946425985
 10
160.9505174261228
 20
104.5582946425985
 10
161.5257975405573
 20
105.2703585352364
 10
161.5257975405573
 20
105.2703585352364
 10
161.5257975405573
 20
105.2703585352364
 10
160.868837654745
 20
104.640334591425
 10
160.868837654745
 20
104.640334591425
 97
        1
330
387
 92
        1
 93
        1
 72
     4
 94
        3
 73
     0
 74
     0
 95
       14
 96
       10
 40
0.0
 40
0.0
 40
0.0
 40
0.0
 40
1.0
 40
1.0
 40
1.0
 40
2.0
 40
2.0
 40
2.0
 40
3.0
 40
3.0
 40
3.0
 40
3.0
 10
160.9505174261228
 20
104.5582946425985
 10
160.9505174261228
 20
104.5582946425985
 10
161.5257975405573
 20
105.2703585352364
 10
161.5257975405573
 20
105.2703585352364
 10
161.5257975405573
 20
105.2703585352364
 10
161.6078775067979
 20
105.2152517027092
 10
161.6078775067979
 20
105.2152517027092
 10
161.6078775067979
 20
105.2152517027092
 10
160.9505174261228
 20
104.5582946425985
 10
160.9505174261228
 20
104.5582946425985
 97
        1
330
388
 75
     2
 76
     1
 98
        1
 10
0.0
 20
0.0
  0
MTEXT
  5
38A
330
70
100
AcDbEntity
  8
Layer 1
100
AcDbMText
 10
184.1468993680257
 20
90.03309188287367
 30
0.0
 40
0.2
 41
0.0
 71
     7
 72
     1
  1
\C250;\FGill Sans MT Pro Book|b0|i0|c1;\H1.873250;\W1.000000;Concrete slab or masonry
 73
     1
 44
1.0
1001
ACAD
1000
MTEXTBEGIN
1070
    73
1070
     1
1070
    44
1040
1.0
1070
    74
1070
     0
1000
MTEXTEND
  0
LWPOLYLINE
  5
38B
330
70
100
AcDbEntity
  8
Layer 1
 62
   250
370
     9
100
AcDbPolyline
 90
        3
 70
     0
 43
0.0
 10
182.0287808190022
 20
90.73476336274593
 10
155.0382786486717
 20
90.73476336274593
 10
148.852066468548
 20
96.92097569914713
  0
LWPOLYLINE
  5
38C
330
70
100
AcDbEntity
  8
Layer 1
100
AcDbPolyline
 90
        3
 70
     1
 43
0.0
 10
148.6875463606913
 20
96.75681313389922
 10
149.0162264010292
 20
97.0854931742371
 10
147.8937998709735
 20
97.87923966395453
  0
HATCH
  5
38D
330
70
100
AcDbEntity
  8
Layer 1
 62
   250
100
AcDbHatch
 10
0.0
 20
0.0
 30
0.0
210
0.0
220
0.0
230
1.0
  2
SOLID
 70
     1
 71
     1
 91
        1
 92
        1
 93
        3
 72
     1
 10
148.6875463606913
 20
96.75681313389922
 11
149.0162264010292
 21
97.0854931742371
 72
     1
 10
149.0162264010292
 20
97.0854931742371
 11
147.8937998709735
 21
97.87923966395453
 72
     1
 10
147.8937998709735
 20
97.87923966395453
 11
148.6875463606913
 21
96.75681313389922
 97
        1
330
38C
 75
     2
 76
     1
 98
        1
 10
0.0
 20
0.0
  0
LWPOLYLINE
  5
38E
330
70
100
AcDbEntity
  8
Layer 1
 62
   250
370
     9
100
AcDbPolyline
 90
        3
 70
     1
 43
0.0
 10
148.6875463606913
 20
96.75681313389922
 10
149.0162264010292
 20
97.0854931742371
 10
147.8937998709735
 20
97.87923966395453
  0
MTEXT
  5
38F
330
70
100
AcDbEntity
  8
Layer 1
100
AcDbMText
 10
184.0917778402618
 20
110.3821109701078
 30
0.0
 40
0.2
 41
0.0
 71
     7
 72
     1
  1
\C250;\FGill Sans MT Pro Book|b0|i0|c1;\H1.873250;\W1.000000;Damp proof course
 73
     1
 44
1.0
1001
ACAD
1000
MTEXTBEGIN
1070
    73
1070
     1
1070
    44
1040
1.0
1070
    74
1070
     0
1000
MTEXTEND
  0
LWPOLYLINE
  5
390
330
70
100
AcDbEntity
  8
Layer 1
 62
   250
370
     9
100
AcDbPolyline
 90
        3
 70
     0
 43
0.0
 10
182.0287808190022
 20
110.7110641447722
 10
163.7429170967164
 20
110.7110641447722
 10
152.9854021062015
 20
121.4685391158013
  0
INSERT
  5
392
330
70
100
AcDbEntity
  8
Layer 1
100
AcDbBlockReference
  2
Block_0
 10
0.0
 20
0.0
 30
0.0
  0
MTEXT
  5
398
330
70
100
AcDbEntity
  8
Layer 1
100
AcDbMText
 10
184.0370008220463
 20
144.8793565175996
 30
0.0
 40
0.2
 41
0.0
 71
     7
 72
     1
  1
\C250;\FGill Sans MT Pro Book|b0|i0|c1;\H1.873250;\W1.000000;Ecoply\H1.092105;®\H1.873250; Barrier
 73
     1
 44
1.0
1001
ACAD
1000
MTEXTBEGIN
1070
    73
1070
     1
1070
    44
1040
1.0
1070
    74
1070
     0
1000
MTEXTEND
  0
LINE
  5
399
330
70
100
AcDbEntity
  8
Layer 1
 62
   250
370
     9
100
AcDbLine
 10
182.0287808190022
 20
144.9884980255161
 30
0.0
 11
166.5899833854885
 21
144.9884980255161
 31
0.0
  0
LWPOLYLINE
  5
39A
330
70
100
AcDbEntity
  8
Layer 1
100
AcDbPolyline
 90
        3
 70
     1
 43
0.0
 10
166.5899833854885
 20
144.7696314553703
 10
166.5899833854885
 20
145.2075646930927
 10
165.248330109912
 20
144.9884980255161
  0
HATCH
  5
39B
330
70
100
AcDbEntity
  8
Layer 1
 62
   250
100
AcDbHatch
 10
0.0
 20
0.0
 30
0.0
210
0.0
220
0.0
230
1.0
  2
SOLID
 70
     1
 71
     1
 91
        1
 92
        1
 93
        3
 72
     1
 10
166.5899833854885
 20
144.7696314553703
 11
166.5899833854885
 21
145.2075646930927
 72
     1
 10
166.5899833854885
 20
145.2075646930927
 11
165.248330109912
 21
144.9884980255161
 72
     1
 10
165.248330109912
 20
144.9884980255161
 11
166.5899833854885
 21
144.7696314553703
 97
        1
330
39A
 75
     2
 76
     1
 98
        1
 10
0.0
 20
0.0
  0
LWPOLYLINE
  5
39C
330
70
100
AcDbEntity
  8
Layer 1
 62
   250
370
     9
100
AcDbPolyline
 90
        3
 70
     1
 43
0.0
 10
166.5899833854885
 20
144.7696314553703
 10
166.5899833854885
 20
145.2075646930927
 10
165.248330109912
 20
144.9884980255161
  0
MTEXT
  5
39D
330
70
100
AcDbEntity
  8
Layer 1
100
AcDbMText
 10
184.0370008220463
 20
152.6258259709581
 30
0.0
 40
0.2
 41
0.0
 71
     7
 72
     1
  1
\C250;\FGill Sans MT Pro Book|b0|i0|c1;\H1.873250;\W1.000000;Interior lining
 73
     1
 44
1.0
1001
ACAD
1000
MTEXTBEGIN
1070
    73
1070
     1
1070
    44
1040
1.0
1070
    74
1070
     0
1000
MTEXTEND
  0
LINE
  5
39E
330
70
100
AcDbEntity
  8
Layer 1
 62
   250
370
     9
100
AcDbLine
 10
182.0287808190022
 20
152.7352300513619
 30
0.0
 11
133.3036556622739
 21
152.7352300513619
 31
0.0
  0
LWPOLYLINE
  5
39F
330
70
100
AcDbEntity
  8
Layer 1
100
AcDbPolyline
 90
        3
 70
     1
 43
0.0
 10
133.3036556622739
 20
152.5164035007028
 10
133.3036556622739
 20
152.9542967189388
 10
131.9626026789907
 20
152.7352300513619
  0
HATCH
  5
3A0
330
70
100
AcDbEntity
  8
Layer 1
 62
   250
100
AcDbHatch
 10
0.0
 20
0.0
 30
0.0
210
0.0
220
0.0
230
1.0
  2
SOLID
 70
     1
 71
     1
 91
        1
 92
        1
 93
        3
 72
     1
 10
133.3036556622739
 20
152.5164035007028
 11
133.3036556622739
 21
152.9542967189388
 72
     1
 10
133.3036556622739
 20
152.9542967189388
 11
131.9626026789907
 21
152.7352300513619
 72
     1
 10
131.9626026789907
 20
152.7352300513619
 11
133.3036556622739
 21
152.5164035007028
 97
        1
330
39F
 75
     2
 76
     1
 98
        1
 10
0.0
 20
0.0
  0
LWPOLYLINE
  5
3A1
330
70
100
AcDbEntity
  8
Layer 1
 62
   250
370
     9
100
AcDbPolyline
 90
        3
 70
     1
 43
0.0
 10
133.3036556622739
 20
152.5164035007028
 10
133.3036556622739
 20
152.9542967189388
 10
131.9626026789907
 20
152.7352300513619
  0
LINE
  5
3A2
330
70
100
AcDbEntity
  8
Layer 1
 62
   250
370
     9
100
AcDbLine
 10
167.191841434245
 20
113.5913701883614
 30
0.0
 11
171.9820889005187
 21
113.5913701883614
 31
0.0
  0
LINE
  5
3A3
330
70
100
AcDbEntity
  8
Layer 1
 62
   250
370
     9
100
AcDbLine
 10
167.191841434245
 20
121.6937553882579
 30
0.0
 11
174.11592790585
 21
121.6937553882579
 31
0.0
  0
MTEXT
  5
3A4
330
70
100
AcDbEntity
  8
Layer 1
100
AcDbMText
 10
170.6962130649648
 20
123.7195800471951
 30
0.0
 40
0.2
 41
0.0
 71
     7
 72
     1
  1
\C250;\FGill Sans MT Pro Book|b0|i0|c1;\H1.873250;\W1.000000;25 mm minimum
 11
0.0000000000000001
 21
1.0
 31
0.0
 73
     1
 44
1.0
1001
ACAD
1000
MTEXTBEGIN
1070
    73
1070
     1
1070
    44
1040
1.0
1070
    74
1070
     0
1000
MTEXTEND
  0
MTEXT
  5
3A5
330
70
100
AcDbEntity
  8
Layer 1
100
AcDbMText
 10
184.1468993680257
 20
100.5719834818014
 30
0.0
 40
0.2
 41
0.0
 71
     7
 72
     1
  1
\C250;\FGill Sans MT Pro Book|b0|i0|c1;\H1.873250;\W1.000000;6 mm gap
 73
     1
 44
1.0
1001
ACAD
1000
MTEXTBEGIN
1070
    73
1070
     1
1070
    44
1040
1.0
1070
    74
1070
     0
1000
MTEXTEND
  0
LWPOLYLINE
  5
3A6
330
70
100
AcDbEntity
  8
Layer 1
 62
   250
370
     9
100
AcDbPolyline
 90
        3
 70
     0
 43
0.0
 10
182.0287808190022
 20
101.2457188643954
 10
163.7429170967164
 20
101.2457188643954
 10
161.1424108625554
 20
103.8465852739331
  0
LWPOLYLINE
  5
3A7
330
70
100
AcDbEntity
  8
Layer 1
100
AcDbPolyline
 90
        3
 70
     1
 43
0.0
 10
161.0052640832742
 20
103.6828655558008
 10
161.306975836705
 20
104.0107452064136
 10
160.1841442649813
 20
104.8044916961314
  0
HATCH
  5
3A8
330
70
100
AcDbEntity
  8
Layer 1
 62
   250
100
AcDbHatch
 10
0.0
 20
0.0
 30
0.0
210
0.0
220
0.0
230
1.0
  2
SOLID
 70
     1
 71
     1
 91
        1
 92
        1
 93
        3
 72
     1
 10
161.0052640832742
 20
103.6828655558008
 11
161.306975836705
 21
104.0107452064136
 72
     1
 10
161.306975836705
 20
104.0107452064136
 11
160.1841442649813
 21
104.8044916961314
 72
     1
 10
160.1841442649813
 20
104.8044916961314
 11
161.0052640832742
 21
103.6828655558008
 97
        1
330
3A7
 75
     2
 76
     1
 98
        1
 10
0.0
 20
0.0
  0
LWPOLYLINE
  5
3A9
330
70
100
AcDbEntity
  8
Layer 1
 62
   250
370
     9
100
AcDbPolyline
 90
        3
 70
     1
 43
0.0
 10
161.0052640832742
 20
103.6828655558008
 10
161.306975836705
 20
104.0107452064136
 10
160.1841442649813
 20
104.8044916961314
  0
MTEXT
  5
3AA
330
70
100
AcDbEntity
  8
Layer 1
100
AcDbMText
 10
175.4890299040444
 20
123.7190632828723
 30
0.0
 40
0.2
 41
0.0
 71
     7
 72
     1
  1
\C250;\FGill Sans MT Pro Book|b0|i0|c1;\H1.873250;\W1.000000;40 mm maximum
 11
0.0000000000000001
 21
1.0
 31
0.0
 73
     1
 44
1.0
1001
ACAD
1000
MTEXTBEGIN
1070
    73
1070
     1
1070
    44
1040
1.0
1070
    74
1070
     0
1000
MTEXTEND
  0
LINE
  5
3AB
330
70
100
AcDbEntity
  8
Layer 1
 62
   250
370
     9
100
AcDbLine
 10
169.5867625722149
 20
113.8104368559377
 30
0.0
 11
169.5867625722149
 21
121.4885754824004
 31
0.0
  0
LINE
  5
3AC
330
70
100
AcDbEntity
  8
Layer 1
 62
   250
370
     9
100
AcDbLine
 10
172.5022621824258
 20
108.8556642863366
 30
0.0
 11
177.2924746246844
 21
108.8556642863366
 31
0.0
  0
LINE
  5
3AD
330
70
100
AcDbEntity
  8
Layer 1
 62
   250
370
     9
100
AcDbLine
 10
172.5022621824258
 20
121.6937553882579
 30
0.0
 11
177.2924746246844
 21
121.6937553882579
 31
0.0
  0
LINE
  5
3AE
330
70
100
AcDbEntity
  8
Layer 1
 62
   250
370
     9
100
AcDbLine
 10
174.8971935059921
 20
108.8556642863366
 30
0.0
 11
174.8971935059921
 21
121.4885754824004
 31
0.0
  0
ENDSEC
  0
SECTION
  2
OBJECTS
  0
DICTIONARY
  5
C
330
0
100
AcDbDictionary
281
     1
  3
ACAD_COLOR
350
63
  3
ACAD_DETAILVIEWSTYLE
350
6A
  3
ACAD_GROUP
350
D
  3
ACAD_LAYOUT
350
62
  3
ACAD_MATERIAL
350
10
  3
ACAD_MLEADERSTYLE
350
66
  3
ACAD_MLINESTYLE
350
5F
  3
ACAD_PLOTSETTINGS
350
61
  3
ACAD_PLOTSTYLENAME
350
E
  3
ACAD_SCALELIST
350
42
  3
ACAD_SECTIONVIEWSTYLE
350
68
  3
ACAD_TABLESTYLE
350
64
  3
ACAD_VISUALSTYLE
350
29
  3
ACDB_RECOMPOSE_DATA
350
3C1
  3
AcDbVariableDictionary
350
3AF
  0
DICTIONARY
  5
63
102
{ACAD_REACTORS
330
C
102
}
330
C
100
AcDbDictionary
281
     1
  0
DICTIONARY
  5
6A
102
{ACAD_REACTORS
330
C
102
}
330
C
100
AcDbDictionary
281
     1
  3
Imperial24
350
6B
  0
DICTIONARY
  5
D
102
{ACAD_REACTORS
330
C
102
}
330
C
100
AcDbDictionary
281
     1
  0
DICTIONARY
  5
62
102
{ACAD_REACTORS
330
C
102
}
330
C
100
AcDbDictionary
281
     1
  3
Layout1
350
6F
  3
Layout2
350
77
  3
Model
350
73
  0
DICTIONARY
  5
10
102
{ACAD_REACTORS
330
C
102
}
330
C
100
AcDbDictionary
281
     1
  3
ByBlock
350
19
  3
ByLayer
350
11
  3
Global
350
21
  0
DICTIONARY
  5
66
102
{ACAD_REACTORS
330
C
102
}
330
C
100
AcDbDictionary
281
     1
  3
Standard
350
67
  0
DICTIONARY
  5
5F
102
{ACAD_REACTORS
330
C
102
}
330
C
100
AcDbDictionary
281
     1
  3
Standard
350
60
  0
DICTIONARY
  5
61
102
{ACAD_REACTORS
330
C
102
}
330
C
100
AcDbDictionary
281
     1
  0
ACDBDICTIONARYWDFLT
  5
E
102
{ACAD_REACTORS
330
C
102
}
330
C
100
AcDbDictionary
281
     1
  3
Normal
350
F
100
AcDbDictionaryWithDefault
340
F
  0
DICTIONARY
  5
42
102
{ACAD_REACTORS
330
C
102
}
330
C
100
AcDbDictionary
281
     1
  3
A0
350
43
  3
A1
350
44
  3
A2
350
45
  3
A3
350
46
  3
A4
350
47
  3
A5
350
48
  3
A6
350
49
  3
A7
350
4A
  3
A8
350
4B
  3
A9
350
4C
  3
B0
350
4D
  3
B1
350
4E
  3
B2
350
4F
  3
B3
350
50
  3
B4
350
51
  3
B5
350
52
  3
B6
350
53
  0
DICTIONARY
  5
68
102
{ACAD_REACTORS
330
C
102
}
330
C
100
AcDbDictionary
281
     1
  3
Imperial24
350
69
  0
DICTIONARY
  5
64
102
{ACAD_REACTORS
330
C
102
}
330
C
100
AcDbDictionary
281
     1
  3
Standard
350
65
  0
DICTIONARY
  5
29
102
{ACAD_REACTORS
330
C
102
}
330
C
100
AcDbDictionary
281
     1
  3
2dWireframe
350
2F
  3
Basic
350
2E
  3
Brighten
350
35
  3
ColorChange
350
39
  3
Conceptual
350
32
  3
Dim
350
34
  3
EdgeColorOff
350
41
  3
Facepattern
350
38
  3
Flat
350
2A
  3
FlatWithEdges
350
2B
  3
Gouraud
350
2C
  3
GouraudWithEdges
350
2D
  3
Hidden
350
31
  3
JitterOff
350
3F
  3
Linepattern
350
37
  3
OverhangOff
350
40
  3
Realistic
350
33
  3
Shaded
350
3E
  3
Shaded with edges
350
3D
  3
Shades of Gray
350
3A
  3
Sketchy
350
3B
  3
Thicken
350
36
  3
Wireframe
350
30
  3
X-Ray
350
3C
  0
XRECORD
  5
3C1
102
{ACAD_REACTORS
330
C
102
}
330
C
100
AcDbXrecord
280
     1
 90
        1
330
65
  0
DICTIONARY
  5
3AF
102
{ACAD_REACTORS
330
C
102
}
330
C
100
AcDbDictionary
281
     1
  3
CANNOSCALE
350
3B5
  3
CMLEADERSTYLE
350
3B1
  3
CTABLESTYLE
350
3B0
  3
CVIEWDETAILSTYLE
350
3B2
  3
CVIEWSECTIONSTYLE
350
3B3
  3
DIMASSOC
350
3BC
  3
HIDETEXT
350
3BB
  3
INDEXCTL
350
3BA
  3
LAYEREVAL
350
3B7
  3
LAYERNOTIFY
350
3B8
  3
LIGHTINGUNITS
350
3B6
  3
MSLTSCALE
350
3B4
  3
SORTENTS
350
3B9
  3
XCLIPFRAME
350
3BD
  0
ACDBDETAILVIEWSTYLE
  5
6B
102
{ACAD_XDICTIONARY
360
3FB
102
}
102
{ACAD_REACTORS
330
6A
102
}
330
6A
100
AcDbModelDocViewStyle
 70
     0
  3
Imperial24
290
     0
100
AcDbDetailViewStyle
 70
     0
 71
     0
 90
        3
 71
     1
340
55
 40
0.24
340
0
 40
0.24
300

 40
0.36
280
     3
 71
     2
340
5D
 90
       25
 71
     3
340
55
 40
0.24
 90
        1
 40
0.75
 90
        1
300
%<\AcVar ViewType \f "%tc1">% %<\AcVar ViewDetailId>%\PSCALE %<\AcVar ViewScale \f "%sn">%
 71
     4
340
5D
 90
       25
340
5D
 90
       25
280
     0
  0
LAYOUT
  5
6F
102
{ACAD_XDICTIONARY
360
3FD
102
}
102
{ACAD_REACTORS
330
62
102
}
330
62
100
AcDbPlotSettings
  1

  2

  4

  6

 40
0.0
 41
0.0
 42
0.0
 43
0.0
 44
0.0
 45
0.0
 46
0.0
 47
0.0
 48
0.0
 49
0.0
140
0.0
141
0.0
142
1.0
143
1.0
 70
   688
 72
     0
 73
     0
 74
     5
  7

 75
    16
147
1.0
148
0.0
149
0.0
100
AcDbLayout
  1
Layout1
 70
     1
 71
     1
 10
0.0
 20
0.0
 11
12.0
 21
9.0
 12
0.0
 22
0.0
 32
0.0
 14
0.0
 24
0.0
 34
0.0
 15
0.0
 25
0.0
 35
0.0
146
0.0
 13
0.0
 23
0.0
 33
0.0
 16
1.0
 26
0.0
 36
0.0
 17
0.0
 27
1.0
 37
0.0
 76
     0
330
6C
  0
LAYOUT
  5
77
102
{ACAD_XDICTIONARY
360
401
102
}
102
{ACAD_REACTORS
330
62
102
}
330
62
100
AcDbPlotSettings
  1

  2

  4

  6

 40
0.0
 41
0.0
 42
0.0
 43
0.0
 44
0.0
 45
0.0
 46
0.0
 47
0.0
 48
0.0
 49
0.0
140
0.0
141
0.0
142
1.0
143
1.0
 70
   688
 72
     0
 73
     0
 74
     5
  7

 75
    16
147
1.0
148
0.0
149
0.0
100
AcDbLayout
  1
Layout2
 70
     1
 71
     2
 10
0.0
 20
0.0
 11
12.0
 21
9.0
 12
0.0
 22
0.0
 32
0.0
 14
0.0
 24
0.0
 34
0.0
 15
0.0
 25
0.0
 35
0.0
146
0.0
 13
0.0
 23
0.0
 33
0.0
 16
1.0
 26
0.0
 36
0.0
 17
0.0
 27
1.0
 37
0.0
 76
     0
330
74
  0
LAYOUT
  5
73
102
{ACAD_XDICTIONARY
360
3FF
102
}
102
{ACAD_REACTORS
330
62
102
}
330
62
100
AcDbPlotSettings
  1

  2

  4

  6

 40
0.0
 41
0.0
 42
0.0
 43
0.0
 44
0.0
 45
0.0
 46
0.0
 47
0.0
 48
0.0
 49
0.0
140
0.0
141
0.0
142
1.0
143
1.0
 70
  1712
 72
     0
 73
     0
 74
     0
  7

 75
     0
147
1.0
148
0.0
149
0.0
100
AcDbLayout
  1
Model
 70
     1
 71
     0
 10
0.0
 20
0.0
 11
12.0
 21
9.0
 12
0.0
 22
0.0
 32
0.0
 14
0.0
 24
0.0
 34
0.0
 15
0.0
 25
0.0
 35
0.0
146
0.0
 13
0.0
 23
0.0
 33
0.0
 16
1.0
 26
0.0
 36
0.0
 17
0.0
 27
1.0
 37
0.0
 76
     0
330
70
  0
MATERIAL
  5
19
102
{ACAD_XDICTIONARY
360
1A
102
}
102
{ACAD_REACTORS
330
10
102
}
330
10
100
AcDbMaterial
  1
ByBlock
 72
     0
 43
0.0208333333333333
 43
0.0
 43
0.0
 43
0.0
 43
0.0
 43
0.0208333333333333
 43
0.0
 43
0.0
 43
0.0
 43
0.0
 43
1.0
 43
0.0
 43
0.0
 43
0.0
 43
0.0
 43
1.0
 77
     0
 47
0.0208333333333333
 47
0.0
 47
0.0
 47
0.0
 47
0.0
 47
0.0208333333333333
 47
0.0
 47
0.0
 47
0.0
 47
0.0
 47
1.0
 47
0.0
 47
0.0
 47
0.0
 47
0.0
 47
1.0
171
     0
 49
0.0208333333333333
 49
0.0
 49
0.0
 49
0.0
 49
0.0
 49
0.0208333333333333
 49
0.0
 49
0.0
 49
0.0
 49
0.0
 49
1.0
 49
0.0
 49
0.0
 49
0.0
 49
0.0
 49
1.0
175
     0
142
0.0208333333333333
142
0.0
142
0.0
142
0.0
142
0.0
142
0.0208333333333333
142
0.0
142
0.0
142
0.0
142
0.0
142
1.0
142
0.0
142
0.0
142
0.0
142
0.0
142
1.0
179
     0
144
0.0208333333333333
144
0.0
144
0.0
144
0.0
144
0.0
144
0.0208333333333333
144
0.0
144
0.0
144
0.0
144
0.0
144
1.0
144
0.0
144
0.0
144
0.0
144
0.0
144
1.0
147
0.0208333333333333
147
0.0
147
0.0
147
0.0
147
0.0
147
0.0208333333333333
147
0.0
147
0.0
147
0.0
147
0.0
147
1.0
147
0.0
147
0.0
147
0.0
147
0.0
147
1.0
  0
MATERIAL
  5
11
102
{ACAD_XDICTIONARY
360
12
102
}
102
{ACAD_REACTORS
330
10
102
}
330
10
100
AcDbMaterial
  1
ByLayer
 72
     0
 43
0.0208333333333333
 43
0.0
 43
0.0
 43
0.0
 43
0.0
 43
0.0208333333333333
 43
0.0
 43
0.0
 43
0.0
 43
0.0
 43
1.0
 43
0.0
 43
0.0
 43
0.0
 43
0.0
 43
1.0
 77
     0
 47
0.0208333333333333
 47
0.0
 47
0.0
 47
0.0
 47
0.0
 47
0.0208333333333333
 47
0.0
 47
0.0
 47
0.0
 47
0.0
 47
1.0
 47
0.0
 47
0.0
 47
0.0
 47
0.0
 47
1.0
171
     0
 49
0.0208333333333333
 49
0.0
 49
0.0
 49
0.0
 49
0.0
 49
0.0208333333333333
 49
0.0
 49
0.0
 49
0.0
 49
0.0
 49
1.0
 49
0.0
 49
0.0
 49
0.0
 49
0.0
 49
1.0
175
     0
142
0.0208333333333333
142
0.0
142
0.0
142
0.0
142
0.0
142
0.0208333333333333
142
0.0
142
0.0
142
0.0
142
0.0
142
1.0
142
0.0
142
0.0
142
0.0
142
0.0
142
1.0
179
     0
144
0.0208333333333333
144
0.0
144
0.0
144
0.0
144
0.0
144
0.0208333333333333
144
0.0
144
0.0
144
0.0
144
0.0
144
1.0
144
0.0
144
0.0
144
0.0
144
0.0
144
1.0
147
0.0208333333333333
147
0.0
147
0.0
147
0.0
147
0.0
147
0.0208333333333333
147
0.0
147
0.0
147
0.0
147
0.0
147
1.0
147
0.0
147
0.0
147
0.0
147
0.0
147
1.0
  0
MATERIAL
  5
21
102
{ACAD_XDICTIONARY
360
22
102
}
102
{ACAD_REACTORS
330
10
102
}
330
10
100
AcDbMaterial
  1
Global
 72
     0
 43
0.0208333333333333
 43
0.0
 43
0.0
 43
0.0
 43
0.0
 43
0.0208333333333333
 43
0.0
 43
0.0
 43
0.0
 43
0.0
 43
1.0
 43
0.0
 43
0.0
 43
0.0
 43
0.0
 43
1.0
 77
     0
 47
0.0208333333333333
 47
0.0
 47
0.0
 47
0.0
 47
0.0
 47
0.0208333333333333
 47
0.0
 47
0.0
 47
0.0
 47
0.0
 47
1.0
 47
0.0
 47
0.0
 47
0.0
 47
0.0
 47
1.0
171
     0
 49
0.0208333333333333
 49
0.0
 49
0.0
 49
0.0
 49
0.0
 49
0.0208333333333333
 49
0.0
 49
0.0
 49
0.0
 49
0.0
 49
1.0
 49
0.0
 49
0.0
 49
0.0
 49
0.0
 49
1.0
175
     0
142
0.0208333333333333
142
0.0
142
0.0
142
0.0
142
0.0
142
0.0208333333333333
142
0.0
142
0.0
142
0.0
142
0.0
142
1.0
142
0.0
142
0.0
142
0.0
142
0.0
142
1.0
179
     0
144
0.0208333333333333
144
0.0
144
0.0
144
0.0
144
0.0
144
0.0208333333333333
144
0.0
144
0.0
144
0.0
144
0.0
144
1.0
144
0.0
144
0.0
144
0.0
144
0.0
144
1.0
147
0.0208333333333333
147
0.0
147
0.0
147
0.0
147
0.0
147
0.0208333333333333
147
0.0
147
0.0
147
0.0
147
0.0
147
1.0
147
0.0
147
0.0
147
0.0
147
0.0
147
1.0
  0
MLEADERSTYLE
  5
67
102
{ACAD_XDICTIONARY
360
3F7
102
}
102
{ACAD_REACTORS
330
66
102
}
330
66
100
AcDbMLeaderStyle
170
     2
171
     1
172
     0
 90
        2
 40
0.0
 41
0.0
173
     1
 91
-1056964608
340
5B
 92
       -2
290
     1
 42
0.09
291
     1
 43
0.36
  3
Standard
 44
0.18
300

342
55
174
     1
178
     6
175
     1
176
     0
 93
-1056964608
 45
0.18
292
     0
297
     0
 46
0.18
 94
-1056964608
 47
1.0
 49
1.0
140
1.0
293
     1
141
0.0
294
     1
177
     0
142
1.0
295
     0
296
     0
143
0.125
1001
ACAD_MLEADERVER
1070
     2
  0
MLINESTYLE
  5
60
102
{ACAD_REACTORS
330
5F
102
}
330
5F
100
AcDbMlineStyle
  2
STANDARD
 70
     0
  3

 62
   256
 51
90.0
 52
90.0
 71
     2
 49
0.5
 62
   256
  6
BYLAYER
 49
-0.5
 62
   256
  6
BYLAYER
  0
ACDBPLACEHOLDER
  5
F
102
{ACAD_REACTORS
330
E
102
}
330
E
  0
SCALE
  5
43
102
{ACAD_REACTORS
330
42
102
}
330
42
100
AcDbScale
 70
     0
300
1:1
140
1.0
141
1.0
290
     1
  0
SCALE
  5
44
102
{ACAD_REACTORS
330
42
102
}
330
42
100
AcDbScale
 70
     0
300
1/128" = 1'-0"
140
0.0078125
141
12.0
290
     0
  0
SCALE
  5
45
102
{ACAD_REACTORS
330
42
102
}
330
42
100
AcDbScale
 70
     0
300
1/64" = 1'-0"
140
0.015625
141
12.0
290
     0
  0
SCALE
  5
46
102
{ACAD_REACTORS
330
42
102
}
330
42
100
AcDbScale
 70
     0
300
1/32" = 1'-0"
140
0.03125
141
12.0
290
     0
  0
SCALE
  5
47
102
{ACAD_REACTORS
330
42
102
}
330
42
100
AcDbScale
 70
     0
300
1/16" = 1'-0"
140
0.0625
141
12.0
290
     0
  0
SCALE
  5
48
102
{ACAD_REACTORS
330
42
102
}
330
42
100
AcDbScale
 70
     0
300
3/32" = 1'-0"
140
0.09375
141
12.0
290
     0
  0
SCALE
  5
49
102
{ACAD_REACTORS
330
42
102
}
330
42
100
AcDbScale
 70
     0
300
1/8" = 1'-0"
140
0.125
141
12.0
290
     0
  0
SCALE
  5
4A
102
{ACAD_REACTORS
330
42
102
}
330
42
100
AcDbScale
 70
     0
300
3/16" = 1'-0"
140
0.1875
141
12.0
290
     0
  0
SCALE
  5
4B
102
{ACAD_REACTORS
330
42
102
}
330
42
100
AcDbScale
 70
     0
300
1/4" = 1'-0"
140
0.25
141
12.0
290
     0
  0
SCALE
  5
4C
102
{ACAD_REACTORS
330
42
102
}
330
42
100
AcDbScale
 70
     0
300
3/8" = 1'-0"
140
0.375
141
12.0
290
     0
  0
SCALE
  5
4D
102
{ACAD_REACTORS
330
42
102
}
330
42
100
AcDbScale
 70
     0
300
1/2" = 1'-0"
140
0.5
141
12.0
290
     0
  0
SCALE
  5
4E
102
{ACAD_REACTORS
330
42
102
}
330
42
100
AcDbScale
 70
     0
300
3/4" = 1'-0"
140
0.75
141
12.0
290
     0
  0
SCALE
  5
4F
102
{ACAD_REACTORS
330
42
102
}
330
42
100
AcDbScale
 70
     0
300
1" = 1'-0"
140
1.0
141
12.0
290
     0
  0
SCALE
  5
50
102
{ACAD_REACTORS
330
42
102
}
330
42
100
AcDbScale
 70
     0
300
1-1/2" = 1'-0"
140
1.5
141
12.0
290
     0
  0
SCALE
  5
51
102
{ACAD_REACTORS
330
42
102
}
330
42
100
AcDbScale
 70
     0
300
3" = 1'-0"
140
3.0
141
12.0
290
     0
  0
SCALE
  5
52
102
{ACAD_REACTORS
330
42
102
}
330
42
100
AcDbScale
 70
     0
300
6" = 1'-0"
140
6.0
141
12.0
290
     0
  0
SCALE
  5
53
102
{ACAD_REACTORS
330
42
102
}
330
42
100
AcDbScale
 70
     0
300
1'-0" = 1'-0"
140
12.0
141
12.0
290
     0
  0
ACDBSECTIONVIEWSTYLE
  5
69
102
{ACAD_XDICTIONARY
360
3F9
102
}
102
{ACAD_REACTORS
330
68
102
}
330
68
100
AcDbModelDocViewStyle
 70
     0
  3
Imperial24
290
     0
100
AcDbSectionViewStyle
 70
     0
 71
     0
 90
       78
 71
     1
340
55
 40
0.24
340
0
340
0
 40
0.24
300
I, O, Q, S, X, Z
 40
0.48
 90
        3
 40
0.18
 90
        1
 71
     2
340
5D
 90
       25
340
5D
 90
       50
 40
0.24
 40
0.0
 40
0.24
 71
     3
340
55
 40
0.24
 90
        1
 40
0.75
 90
        1
300
%<\AcVar ViewType \f "%tc1">% %<\AcVar ViewSectionStartId>%-%<\AcVar ViewSectionEndId>%\PSCALE %<\AcVar ViewScale \f "%sn">%
 71
     4
300
ANSI31
 40
1.0
 90
        0
290
     0
290
     0
 90
        6
 40
0.0
 40
1.570796326794896
 40
0.2617993877991494
 40
1.308996938995747
 40
-0.2617993877991494
 40
1.832595714594046
  0
TABLESTYLE
  5
65
102
{ACAD_XDICTIONARY
360
3BE
102
}
102
{ACAD_REACTORS
330
64
102
}
330
64
100
AcDbTableStyle
  3
Standard
 70
     0
 71
     0
 40
0.06
 41
0.06
280
     0
281
     0
  7
Standard
140
0.18
170
     2
 62
     0
 63
     7
283
     0
274
    -2
284
     1
 64
     0
275
    -2
285
     1
 65
     0
276
    -2
286
     1
 66
     0
277
    -2
287
     1
 67
     0
278
    -2
288
     1
 68
     0
279
    -2
289
     1
 69
     0
  7
Standard
140
0.25
170
     5
 62
     0
 63
     7
283
     0
274
    -2
284
     1
 64
     0
275
    -2
285
     1
 65
     0
276
    -2
286
     1
 66
     0
277
    -2
287
     1
 67
     0
278
    -2
288
     1
 68
     0
279
    -2
289
     1
 69
     0
  7
Standard
140
0.18
170
     5
 62
     0
 63
     7
283
     0
274
    -2
284
     1
 64
     0
275
    -2
285
     1
 65
     0
276
    -2
286
     1
 66
     0
277
    -2
287
     1
 67
     0
278
    -2
288
     1
 68
     0
279
    -2
289
     1
 69
     0
  0
VISUALSTYLE
  5
2F
102
{ACAD_XDICTIONARY
360
3CF
102
}
102
{ACAD_REACTORS
330
29
102
}
330
29
100
AcDbVisualStyle
  2
2dWireframe
 70
     4
 71
     0
 72
     2
 73
     0
 90
        0
 40
-0.6
 41
-30.0
 62
     5
 63
     7
 74
     1
 91
        4
 64
     7
 65
   257
 75
     1
175
     1
 42
1.0
 92
        0
 66
   257
 43
1.0
 76
     1
 77
     6
 78
     2
 67
     7
 79
     5
170
     0
171
     0
290
     0
174
     0
 93
        1
 44
0.0
173
     0
291
     0
 45
0.0
1001
ACAD
1000
AcDbSavedByObjectVersion
1070
     0
  0
VISUALSTYLE
  5
2E
102
{ACAD_XDICTIONARY
360
3CD
102
}
102
{ACAD_REACTORS
330
29
102
}
330
29
100
AcDbVisualStyle
  2
Basic
 70
     7
 71
     1
 72
     0
 73
     1
 90
        0
 40
-0.6
 41
-30.0
 62
     5
 63
     7
 74
     0
 91
        4
 64
     7
 65
   257
 75
     1
175
     1
 42
1.0
 92
        8
 66
     7
 43
1.0
 76
     1
 77
     6
 78
     2
 67
     7
 79
     5
170
     0
171
     0
290
     0
174
     0
 93
        1
 44
0.0
173
     0
291
     1
 45
0.0
1001
ACAD
1000
AcDbSavedByObjectVersion
1070
     0
  0
VISUALSTYLE
  5
35
102
{ACAD_XDICTIONARY
360
3DB
102
}
102
{ACAD_REACTORS
330
29
102
}
330
29
100
AcDbVisualStyle
  2
Brighten
 70
    12
 71
     2
 72
     2
 73
     0
 90
        0
 40
-0.6
 41
-30.0
 62
     5
 63
     7
 74
     1
 91
        4
 64
     7
 65
   257
 75
     1
175
     1
 42
1.0
 92
        8
 66
     7
 43
1.0
 76
     1
 77
     6
 78
     2
 67
     7
 79
     5
170
     0
171
     0
290
     0
174
     0
 93
        1
 44
50.0
173
     0
291
     1
 45
0.0
1001
ACAD
1000
AcDbSavedByObjectVersion
1070
     0
  0
VISUALSTYLE
  5
39
102
{ACAD_XDICTIONARY
360
3E3
102
}
102
{ACAD_REACTORS
330
29
102
}
330
29
100
AcDbVisualStyle
  2
ColorChange
 70
    16
 71
     2
 72
     2
 73
     3
 90
        0
 40
-0.6
 41
-30.0
 62
     5
 63
     8
 74
     1
 91
        4
 64
     7
 65
   257
 75
     1
175
     1
 42
1.0
 92
        8
 66
     8
 43
1.0
 76
     1
 77
     6
 78
     2
 67
     7
 79
     5
170
     0
171
     0
290
     0
174
     0
 93
        1
 44
0.0
173
     0
291
     1
 45
0.0
1001
ACAD
1000
AcDbSavedByObjectVersion
1070
     0
  0
VISUALSTYLE
  5
32
102
{ACAD_XDICTIONARY
360
3D5
102
}
102
{ACAD_REACTORS
330
29
102
}
330
29
100
AcDbVisualStyle
  2
Conceptual
 70
     9
 71
     3
 72
     2
 73
     0
 90
        0
 40
-0.6
 41
-30.0
 62
     5
 63
     7
 74
     2
 91
        2
 64
     7
 65
   257
 75
     1
175
     1
 42
179.0
 92
        8
 66
     7
 43
1.0
 76
     1
 77
     6
 78
     2
 67
     7
 79
     3
170
     0
171
     0
290
     0
174
     0
 93
        1
 44
0.0
173
     0
291
     0
 45
0.0
1001
ACAD
1000
AcDbSavedByObjectVersion
1070
     0
  0
VISUALSTYLE
  5
34
102
{ACAD_XDICTIONARY
360
3D9
102
}
102
{ACAD_REACTORS
330
29
102
}
330
29
100
AcDbVisualStyle
  2
Dim
 70
    11
 71
     2
 72
     2
 73
     0
 90
        0
 40
-0.6
 41
-30.0
 62
     5
 63
     7
 74
     1
 91
        4
 64
     7
 65
   257
 75
     1
175
     1
 42
1.0
 92
        8
 66
     7
 43
1.0
 76
     1
 77
     6
 78
     2
 67
     7
 79
     5
170
     0
171
     0
290
     0
174
     0
 93
        1
 44
-50.0
173
     0
291
     1
 45
0.0
1001
ACAD
1000
AcDbSavedByObjectVersion
1070
     0
  0
VISUALSTYLE
  5
41
102
{ACAD_XDICTIONARY
360
3F3
102
}
102
{ACAD_REACTORS
330
29
102
}
330
29
100
AcDbVisualStyle
  2
EdgeColorOff
 70
    22
 71
     2
 72
     2
 73
     0
 90
        0
 40
-0.6
 41
-30.0
 62
     5
 63
     7
 74
     1
 91
        4
 64
     7
 65
   257
 75
     1
175
     1
 42
1.0
 92
        8
 66
     7
 43
1.0
 76
     1
 77
     6
 78
     2
 67
     7
 79
     5
170
     0
171
     0
290
     0
174
     0
 93
        1
 44
0.0
173
     0
291
     1
 45
0.0
1001
ACAD
1000
AcDbSavedByObjectVersion
1070
     0
  0
VISUALSTYLE
  5
38
102
{ACAD_XDICTIONARY
360
3E1
102
}
102
{ACAD_REACTORS
330
29
102
}
330
29
100
AcDbVisualStyle
  2
Facepattern
 70
    15
 71
     2
 72
     2
 73
     0
 90
        0
 40
-0.6
 41
-30.0
 62
     5
 63
     7
 74
     1
 91
        4
 64
     7
 65
   257
 75
     1
175
     1
 42
1.0
 92
        8
 66
     7
 43
1.0
 76
     1
 77
     6
 78
     2
 67
     7
 79
     5
170
     0
171
     0
290
     0
174
     0
 93
        1
 44
0.0
173
     0
291
     1
 45
0.0
1001
ACAD
1000
AcDbSavedByObjectVersion
1070
     0
  0
VISUALSTYLE
  5
2A
102
{ACAD_XDICTIONARY
360
3C5
102
}
102
{ACAD_REACTORS
330
29
102
}
330
29
100
AcDbVisualStyle
  2
Flat
 70
     0
 71
     2
 72
     1
 73
     1
 90
        2
 40
-0.6
 41
30.0
 62
     5
 63
     7
 74
     0
 91
        0
 64
     7
 65
   257
 75
     1
175
     1
 42
1.0
 92
        8
 66
     7
 43
1.0
 76
     1
 77
     6
 78
     2
 67
     7
 79
     5
170
     0
171
     0
290
     0
174
     0
 93
       13
 44
0.0
173
     0
291
     1
 45
0.0
1001
ACAD
1000
AcDbSavedByObjectVersion
1070
     0
  0
VISUALSTYLE
  5
2B
102
{ACAD_XDICTIONARY
360
3C7
102
}
102
{ACAD_REACTORS
330
29
102
}
330
29
100
AcDbVisualStyle
  2
FlatWithEdges
 70
     1
 71
     2
 72
     1
 73
     1
 90
        2
 40
-0.6
 41
30.0
 62
     5
 63
     7
 74
     1
 91
        0
 64
     7
 65
   257
 75
     1
175
     1
 42
1.0
 92
        0
 66
   257
 43
1.0
 76
     1
 77
     6
 78
     2
 67
     7
 79
     5
170
     0
171
     0
290
     0
174
     0
 93
       13
 44
0.0
173
     0
291
     1
 45
0.0
1001
ACAD
1000
AcDbSavedByObjectVersion
1070
     0
  0
VISUALSTYLE
  5
2C
102
{ACAD_XDICTIONARY
360
3C9
102
}
102
{ACAD_REACTORS
330
29
102
}
330
29
100
AcDbVisualStyle
  2
Gouraud
 70
     2
 71
     2
 72
     2
 73
     1
 90
        2
 40
-0.6
 41
30.0
 62
     5
 63
     7
 74
     0
 91
        0
 64
     7
 65
   257
 75
     1
175
     1
 42
1.0
 92
        0
 66
     7
 43
1.0
 76
     1
 77
     6
 78
     2
 67
     7
 79
     5
170
     0
171
     0
290
     0
174
     0
 93
       13
 44
0.0
173
     0
291
     1
 45
0.0
1001
ACAD
1000
AcDbSavedByObjectVersion
1070
     0
  0
VISUALSTYLE
  5
2D
102
{ACAD_XDICTIONARY
360
3CB
102
}
102
{ACAD_REACTORS
330
29
102
}
330
29
100
AcDbVisualStyle
  2
GouraudWithEdges
 70
     3
 71
     2
 72
     2
 73
     1
 90
        2
 40
-0.6
 41
30.0
 62
     5
 63
     7
 74
     1
 91
        0
 64
     7
 65
   257
 75
     1
175
     1
 42
1.0
 92
        0
 66
   257
 43
1.0
 76
     1
 77
     6
 78
     2
 67
     7
 79
     5
170
     0
171
     0
290
     0
174
     0
 93
       13
 44
0.0
173
     0
291
     1
 45
0.0
1001
ACAD
1000
AcDbSavedByObjectVersion
1070
     0
  0
VISUALSTYLE
  5
31
102
{ACAD_XDICTIONARY
360
3D3
102
}
102
{ACAD_REACTORS
330
29
102
}
330
29
100
AcDbVisualStyle
  2
Hidden
 70
     6
 71
     1
 72
     2
 73
     2
 90
        0
 40
-0.6
 41
-30.0
 62
     5
 63
     7
 74
     2
 91
        2
 64
     7
 65
   257
 75
     2
175
     1
 42
40.0
 92
        0
 66
   257
 43
1.0
 76
     1
 77
     6
 78
     2
 67
     7
 79
     3
170
     0
171
     0
290
     0
174
     0
 93
        1
 44
0.0
173
     0
291
     0
 45
0.0
1001
ACAD
1000
AcDbSavedByObjectVersion
1070
     0
  0
VISUALSTYLE
  5
3F
102
{ACAD_XDICTIONARY
360
3EF
102
}
102
{ACAD_REACTORS
330
29
102
}
330
29
100
AcDbVisualStyle
  2
JitterOff
 70
    20
 71
     2
 72
     2
 73
     0
 90
        0
 40
-0.6
 41
-30.0
 62
     5
 63
     7
 74
     1
 91
        4
 64
     7
 65
   257
 75
     1
175
     1
 42
1.0
 92
       10
 66
     7
 43
1.0
 76
     1
 77
     6
 78
     2
 67
     7
 79
     5
170
     0
171
     0
290
     0
174
     0
 93
        1
 44
0.0
173
     0
291
     1
 45
0.0
1001
ACAD
1000
AcDbSavedByObjectVersion
1070
     0
  0
VISUALSTYLE
  5
37
102
{ACAD_XDICTIONARY
360
3DF
102
}
102
{ACAD_REACTORS
330
29
102
}
330
29
100
AcDbVisualStyle
  2
Linepattern
 70
    14
 71
     2
 72
     2
 73
     0
 90
        0
 40
-0.6
 41
-30.0
 62
     5
 63
     7
 74
     1
 91
        4
 64
     7
 65
   257
 75
     7
175
     7
 42
1.0
 92
        8
 66
     7
 43
1.0
 76
     1
 77
     6
 78
     2
 67
     7
 79
     5
170
     0
171
     0
290
     0
174
     0
 93
        1
 44
0.0
173
     0
291
     1
 45
0.0
1001
ACAD
1000
AcDbSavedByObjectVersion
1070
     0
  0
VISUALSTYLE
  5
40
102
{ACAD_XDICTIONARY
360
3F1
102
}
102
{ACAD_REACTORS
330
29
102
}
330
29
100
AcDbVisualStyle
  2
OverhangOff
 70
    21
 71
     2
 72
     2
 73
     0
 90
        0
 40
-0.6
 41
-30.0
 62
     5
 63
     7
 74
     1
 91
        4
 64
     7
 65
   257
 75
     1
175
     1
 42
1.0
 92
        9
 66
     7
 43
1.0
 76
     1
 77
     6
 78
     2
 67
     7
 79
     5
170
     0
171
     0
290
     0
174
     0
 93
        1
 44
0.0
173
     0
291
     1
 45
0.0
1001
ACAD
1000
AcDbSavedByObjectVersion
1070
     0
  0
VISUALSTYLE
  5
33
102
{ACAD_XDICTIONARY
360
3D7
102
}
102
{ACAD_REACTORS
330
29
102
}
330
29
100
AcDbVisualStyle
  2
Realistic
 70
     8
 71
     2
 72
     3
 73
     0
 90
        2
 40
-0.6
 41
30.0
 62
     5
 63
     7
 74
     0
 91
        0
 64
     7
 65
   257
 75
     1
175
     1
 42
1.0
 92
        8
 66
   257
 43
1.0
 76
     1
 77
     6
 78
     2
 67
     7
 79
     3
170
     0
171
     0
290
     0
174
     0
 93
       13
 44
0.0
173
     0
291
     0
 45
0.0
1001
ACAD
1000
AcDbSavedByObjectVersion
1070
     0
  0
VISUALSTYLE
  5
3E
102
{ACAD_XDICTIONARY
360
3ED
102
}
102
{ACAD_REACTORS
330
29
102
}
330
29
100
AcDbVisualStyle
  2
Shaded
 70
    27
 71
     2
 72
     2
 73
     1
 90
        2
 40
-0.6
 41
30.0
 62
     5
 63
     7
 74
     0
 91
        4
 64
     7
 65
   257
 75
     1
175
     1
 42
1.0
 92
        8
 66
   257
 43
1.0
 76
     1
 77
     6
 78
     2
 67
     8
 79
     3
170
     0
171
     0
290
     0
174
     0
 93
        5
 44
0.0
173
     0
291
     0
 45
0.0
1001
ACAD
1000
AcDbSavedByObjectVersion
1070
     0
  0
VISUALSTYLE
  5
3D
102
{ACAD_XDICTIONARY
360
3EB
102
}
102
{ACAD_REACTORS
330
29
102
}
330
29
100
AcDbVisualStyle
  2
Shaded with edges
 70
    26
 71
     2
 72
     2
 73
     1
 90
        2
 40
-0.6
 41
30.0
 62
     5
 63
     7
 74
     1
 91
        2
 64
     7
 65
   257
 75
     2
175
     1
 42
1.0
 92
        8
 66
   257
 43
1.0
 76
     1
 77
     6
 78
     2
 67
     7
 79
     3
170
     0
171
     0
290
     0
174
     0
 93
        5
 44
0.0
173
     0
291
     0
 45
0.0
1001
ACAD
1000
AcDbSavedByObjectVersion
1070
     0
  0
VISUALSTYLE
  5
3A
102
{ACAD_XDICTIONARY
360
3E5
102
}
102
{ACAD_REACTORS
330
29
102
}
330
29
100
AcDbVisualStyle
  2
Shades of Gray
 70
    23
 71
     2
 72
     2
 73
     3
 90
        0
 40
-0.6
 41
-30.0
 62
     5
 63
     7
 74
     2
 91
        2
 64
     7
 65
     7
 75
     1
175
     1
 42
40.0
 92
        8
 66
     7
 43
1.0
 76
     1
 77
     6
 78
     2
 67
     7
 79
     3
170
     0
171
     0
290
     0
174
     0
 93
        1
 44
0.0
173
     0
291
     0
 45
0.0
1001
ACAD
1000
AcDbSavedByObjectVersion
1070
     0
  0
VISUALSTYLE
  5
3B
102
{ACAD_XDICTIONARY
360
3E7
102
}
102
{ACAD_REACTORS
330
29
102
}
330
29
100
AcDbVisualStyle
  2
Sketchy
 70
    24
 71
     1
 72
     2
 73
     2
 90
        0
 40
-0.6
 41
-30.0
 62
     5
 63
     7
 74
     2
 91
        2
 64
     7
 65
     7
 75
     1
175
     1
 42
40.0
 92
       11
 66
     7
 43
1.0
 76
     1
 77
     6
 78
     2
 67
     7
 79
     6
170
     0
171
     0
290
     0
174
     0
 93
        1
 44
0.0
173
     0
291
     0
 45
0.0
1001
ACAD
1000
AcDbSavedByObjectVersion
1070
     0
  0
VISUALSTYLE
  5
36
102
{ACAD_XDICTIONARY
360
3DD
102
}
102
{ACAD_REACTORS
330
29
102
}
330
29
100
AcDbVisualStyle
  2
Thicken
 70
    13
 71
     2
 72
     2
 73
     0
 90
        0
 40
-0.6
 41
-30.0
 62
     5
 63
     7
 74
     1
 91
        4
 64
     7
 65
   257
 75
     1
175
     1
 42
1.0
 92
       12
 66
     7
 43
1.0
 76
     1
 77
     6
 78
     2
 67
     7
 79
     5
170
     0
171
     0
290
     0
174
     0
 93
        1
 44
0.0
173
     0
291
     1
 45
0.0
1001
ACAD
1000
AcDbSavedByObjectVersion
1070
     0
  0
VISUALSTYLE
  5
30
102
{ACAD_XDICTIONARY
360
3D1
102
}
102
{ACAD_REACTORS
330
29
102
}
330
29
100
AcDbVisualStyle
  2
Wireframe
 70
     5
 71
     0
 72
     2
 73
     0
 90
        0
 40
-0.6
 41
-30.0
 62
     5
 63
     7
 74
     1
 91
        4
 64
     7
 65
   257
 75
     1
175
     1
 42
1.0
 92
        0
 66
   257
 43
1.0
 76
     1
 77
     6
 78
     2
 67
     7
 79
     3
170
     0
171
     0
290
     0
174
     0
 93
        1
 44
0.0
173
     0
291
     0
 45
0.0
1001
ACAD
1000
AcDbSavedByObjectVersion
1070
     0
  0
VISUALSTYLE
  5
3C
102
{ACAD_XDICTIONARY
360
3E9
102
}
102
{ACAD_REACTORS
330
29
102
}
330
29
100
AcDbVisualStyle
  2
X-Ray
 70
    25
 71
     2
 72
     2
 73
     1
 90
        1
 40
0.5
 41
-30.0
 62
     5
 63
     7
 74
     1
 91
        0
 64
     7
 65
   257
 75
     1
175
     1
 42
1.0
 92
        8
 66
     7
 43
1.0
 76
     1
 77
     6
 78
     2
 67
     7
 79
     3
170
     0
171
     0
290
     0
174
     0
 93
       13
 44
0.0
173
     0
291
     0
 45
0.0
1001
ACAD
1000
AcDbSavedByObjectVersion
1070
     0
  0
DICTIONARYVAR
  5
3B5
102
{ACAD_REACTORS
330
3AF
102
}
330
3AF
100
DictionaryVariables
280
     0
  1
1:1
  0
DICTIONARYVAR
  5
3B1
102
{ACAD_REACTORS
330
3AF
102
}
330
3AF
100
DictionaryVariables
280
     0
  1
STANDARD
  0
DICTIONARYVAR
  5
3B0
102
{ACAD_REACTORS
330
3AF
102
}
330
3AF
100
DictionaryVariables
280
     0
  1
STANDARD
  0
DICTIONARYVAR
  5
3B2
102
{ACAD_REACTORS
330
3AF
102
}
330
3AF
100
DictionaryVariables
280
     0
  1
Imperial24
  0
DICTIONARYVAR
  5
3B3
102
{ACAD_REACTORS
330
3AF
102
}
330
3AF
100
DictionaryVariables
280
     0
  1
Imperial24
  0
DICTIONARYVAR
  5
3BC
102
{ACAD_REACTORS
330
3AF
102
}
330
3AF
100
DictionaryVariables
280
     0
  1
2
  0
DICTIONARYVAR
  5
3BB
102
{ACAD_REACTORS
330
3AF
102
}
330
3AF
100
DictionaryVariables
280
     0
  1
1
  0
DICTIONARYVAR
  5
3BA
102
{ACAD_REACTORS
330
3AF
102
}
330
3AF
100
DictionaryVariables
280
     0
  1
0
  0
DICTIONARYVAR
  5
3B7
102
{ACAD_REACTORS
330
3AF
102
}
330
3AF
100
DictionaryVariables
280
     0
  1
0
  0
DICTIONARYVAR
  5
3B8
102
{ACAD_REACTORS
330
3AF
102
}
330
3AF
100
DictionaryVariables
280
     0
  1
0
  0
DICTIONARYVAR
  5
3B6
102
{ACAD_REACTORS
330
3AF
102
}
330
3AF
100
DictionaryVariables
280
     0
  1
2
  0
DICTIONARYVAR
  5
3B4
102
{ACAD_REACTORS
330
3AF
102
}
330
3AF
100
DictionaryVariables
280
     0
  1
1
  0
DICTIONARYVAR
  5
3B9
102
{ACAD_REACTORS
330
3AF
102
}
330
3AF
100
DictionaryVariables
280
     0
  1
127
  0
DICTIONARYVAR
  5
3BD
102
{ACAD_REACTORS
330
3AF
102
}
330
3AF
100
DictionaryVariables
280
     0
  1
2
  0
DICTIONARY
  5
3FB
330
6B
100
AcDbDictionary
280
     1
281
     1
  3
ACAD_XREC_ROUNDTRIP
360
3FC
  0
DICTIONARY
  5
3FD
330
6F
100
AcDbDictionary
280
     1
281
     1
  3
ACAD_XREC_ROUNDTRIP
360
3FE
  0
DICTIONARY
  5
401
330
77
100
AcDbDictionary
280
     1
281
     1
  3
ACAD_XREC_ROUNDTRIP
360
402
  0
DICTIONARY
  5
3FF
330
73
100
AcDbDictionary
280
     1
281
     1
  3
ACAD_XREC_ROUNDTRIP
360
400
  0
DICTIONARY
  5
1A
330
19
100
AcDbDictionary
280
     1
281
     1
  3
ACAD_XREC_ROUNDTRIP
360
3C3
  3
BUMPTILE
360
1C
  3
DIFFUSETILE
360
1B
  3
OPACITYTILE
360
1F
  3
REFLECTIONTILE
360
1E
  3
REFRACTIONTILE
360
20
  3
SPECULARTILE
360
1D
  0
DICTIONARY
  5
12
330
11
100
AcDbDictionary
280
     1
281
     1
  3
ACAD_XREC_ROUNDTRIP
360
3C2
  3
BUMPTILE
360
14
  3
DIFFUSETILE
360
13
  3
OPACITYTILE
360
17
  3
REFLECTIONTILE
360
16
  3
REFRACTIONTILE
360
18
  3
SPECULARTILE
360
15
  0
DICTIONARY
  5
22
330
21
100
AcDbDictionary
280
     1
281
     1
  3
ACAD_XREC_ROUNDTRIP
360
3C4
  3
BUMPTILE
360
24
  3
DIFFUSETILE
360
23
  3
OPACITYTILE
360
27
  3
REFLECTIONTILE
360
26
  3
REFRACTIONTILE
360
28
  3
SPECULARTILE
360
25
  0
DICTIONARY
  5
3F7
330
67
100
AcDbDictionary
280
     1
281
     1
  3
ACAD_XREC_ROUNDTRIP
360
3F8
  0
DICTIONARY
  5
3F9
330
69
100
AcDbDictionary
280
     1
281
     1
  3
ACAD_XREC_ROUNDTRIP
360
3FA
  0
DICTIONARY
  5
3BE
330
65
100
AcDbDictionary
280
     1
281
     1
  3
ACAD_ROUNDTRIP_2008_TABLESTYLE_CELLSTYLEMAP
360
3BF
  3
ACAD_XREC_ROUNDTRIP
360
3F5
  0
DICTIONARY
  5
3CF
330
2F
100
AcDbDictionary
280
     1
281
     1
  3
ACAD_XREC_ROUNDTRIP
360
3D0
  0
DICTIONARY
  5
3CD
330
2E
100
AcDbDictionary
280
     1
281
     1
  3
ACAD_XREC_ROUNDTRIP
360
3CE
  0
DICTIONARY
  5
3DB
330
35
100
AcDbDictionary
280
     1
281
     1
  3
ACAD_XREC_ROUNDTRIP
360
3DC
  0
DICTIONARY
  5
3E3
330
39
100
AcDbDictionary
280
     1
281
     1
  3
ACAD_XREC_ROUNDTRIP
360
3E4
  0
DICTIONARY
  5
3D5
330
32
100
AcDbDictionary
280
     1
281
     1
  3
ACAD_XREC_ROUNDTRIP
360
3D6
  0
DICTIONARY
  5
3D9
330
34
100
AcDbDictionary
280
     1
281
     1
  3
ACAD_XREC_ROUNDTRIP
360
3DA
  0
DICTIONARY
  5
3F3
330
41
100
AcDbDictionary
280
     1
281
     1
  3
ACAD_XREC_ROUNDTRIP
360
3F4
  0
DICTIONARY
  5
3E1
330
38
100
AcDbDictionary
280
     1
281
     1
  3
ACAD_XREC_ROUNDTRIP
360
3E2
  0
DICTIONARY
  5
3C5
330
2A
100
AcDbDictionary
280
     1
281
     1
  3
ACAD_XREC_ROUNDTRIP
360
3C6
  0
DICTIONARY
  5
3C7
330
2B
100
AcDbDictionary
280
     1
281
     1
  3
ACAD_XREC_ROUNDTRIP
360
3C8
  0
DICTIONARY
  5
3C9
330
2C
100
AcDbDictionary
280
     1
281
     1
  3
ACAD_XREC_ROUNDTRIP
360
3CA
  0
DICTIONARY
  5
3CB
330
2D
100
AcDbDictionary
280
     1
281
     1
  3
ACAD_XREC_ROUNDTRIP
360
3CC
  0
DICTIONARY
  5
3D3
330
31
100
AcDbDictionary
280
     1
281
     1
  3
ACAD_XREC_ROUNDTRIP
360
3D4
  0
DICTIONARY
  5
3EF
330
3F
100
AcDbDictionary
280
     1
281
     1
  3
ACAD_XREC_ROUNDTRIP
360
3F0
  0
DICTIONARY
  5
3DF
330
37
100
AcDbDictionary
280
     1
281
     1
  3
ACAD_XREC_ROUNDTRIP
360
3E0
  0
DICTIONARY
  5
3F1
330
40
100
AcDbDictionary
280
     1
281
     1
  3
ACAD_XREC_ROUNDTRIP
360
3F2
  0
DICTIONARY
  5
3D7
330
33
100
AcDbDictionary
280
     1
281
     1
  3
ACAD_XREC_ROUNDTRIP
360
3D8
  0
DICTIONARY
  5
3ED
330
3E
100
AcDbDictionary
280
     1
281
     1
  3
ACAD_XREC_ROUNDTRIP
360
3EE
  0
DICTIONARY
  5
3EB
330
3D
100
AcDbDictionary
280
     1
281
     1
  3
ACAD_XREC_ROUNDTRIP
360
3EC
  0
DICTIONARY
  5
3E5
330
3A
100
AcDbDictionary
280
     1
281
     1
  3
ACAD_XREC_ROUNDTRIP
360
3E6
  0
DICTIONARY
  5
3E7
330
3B
100
AcDbDictionary
280
     1
281
     1
  3
ACAD_XREC_ROUNDTRIP
360
3E8
  0
DICTIONARY
  5
3DD
330
36
100
AcDbDictionary
280
     1
281
     1
  3
ACAD_XREC_ROUNDTRIP
360
3DE
  0
DICTIONARY
  5
3D1
330
30
100
AcDbDictionary
280
     1
281
     1
  3
ACAD_XREC_ROUNDTRIP
360
3D2
  0
DICTIONARY
  5
3E9
330
3C
100
AcDbDictionary
280
     1
281
     1
  3
ACAD_XREC_ROUNDTRIP
360
3EA
  0
XRECORD
  5
3FC
102
{ACAD_REACTORS
330
3FB
102
}
330
3FB
100
AcDbXrecord
280
     1
102
DISPLAYNAME
  1
Imperial24
102
FLAGS
 90
        0
  0
XRECORD
  5
3FE
102
{ACAD_REACTORS
330
3FD
102
}
330
3FD
100
AcDbXrecord
280
     1
102
SHADEPLOT
 70
     0
102
SHADEPLOTRESLEVEL
 70
     2
102
SHADEPLOTCUSTOMDPI
 70
   300
  0
XRECORD
  5
402
102
{ACAD_REACTORS
330
401
102
}
330
401
100
AcDbXrecord
280
     1
102
SHADEPLOT
 70
     0
102
SHADEPLOTRESLEVEL
 70
     2
102
SHADEPLOTCUSTOMDPI
 70
   300
  0
XRECORD
  5
400
102
{ACAD_REACTORS
330
3FF
102
}
330
3FF
100
AcDbXrecord
280
     1
102
SHADEPLOT
 70
     0
102
SHADEPLOTRESLEVEL
 70
     2
102
SHADEPLOTCUSTOMDPI
 70
   300
  0
XRECORD
  5
3C3
102
{ACAD_REACTORS
330
1A
102
}
330
1A
100
AcDbXrecord
280
     1
102
MATERIAL
148
0.0
149
0.0
149
0.0
 93
        0
 94
      127
282
     0
 72
     0
 77
     0
171
     0
175
     0
179
     0
273
     0
  0
XRECORD
  5
1C
102
{ACAD_REACTORS
330
1A
102
}
330
1A
100
AcDbXrecord
280
     1
270
     1
271
     1
  0
XRECORD
  5
1B
102
{ACAD_REACTORS
330
1A
102
}
330
1A
100
AcDbXrecord
280
     1
270
     1
271
     1
  0
XRECORD
  5
1F
102
{ACAD_REACTORS
330
1A
102
}
330
1A
100
AcDbXrecord
280
     1
270
     1
271
     1
  0
XRECORD
  5
1E
102
{ACAD_REACTORS
330
1A
102
}
330
1A
100
AcDbXrecord
280
     1
270
     1
271
     1
  0
XRECORD
  5
20
102
{ACAD_REACTORS
330
1A
102
}
330
1A
100
AcDbXrecord
280
     1
270
     1
271
     1
  0
XRECORD
  5
1D
102
{ACAD_REACTORS
330
1A
102
}
330
1A
100
AcDbXrecord
280
     1
270
     1
271
     1
  0
XRECORD
  5
3C2
102
{ACAD_REACTORS
330
12
102
}
330
12
100
AcDbXrecord
280
     1
102
MATERIAL
148
0.0
149
0.0
149
0.0
 93
        0
 94
      127
282
     0
 72
     0
 77
     0
171
     0
175
     0
179
     0
273
     0
  0
XRECORD
  5
14
102
{ACAD_REACTORS
330
12
102
}
330
12
100
AcDbXrecord
280
     1
270
     1
271
     1
  0
XRECORD
  5
13
102
{ACAD_REACTORS
330
12
102
}
330
12
100
AcDbXrecord
280
     1
270
     1
271
     1
  0
XRECORD
  5
17
102
{ACAD_REACTORS
330
12
102
}
330
12
100
AcDbXrecord
280
     1
270
     1
271
     1
  0
XRECORD
  5
16
102
{ACAD_REACTORS
330
12
102
}
330
12
100
AcDbXrecord
280
     1
270
     1
271
     1
  0
XRECORD
  5
18
102
{ACAD_REACTORS
330
12
102
}
330
12
100
AcDbXrecord
280
     1
270
     1
271
     1
  0
XRECORD
  5
15
102
{ACAD_REACTORS
330
12
102
}
330
12
100
AcDbXrecord
280
     1
270
     1
271
     1
  0
XRECORD
  5
3C4
102
{ACAD_REACTORS
330
22
102
}
330
22
100
AcDbXrecord
280
     1
102
MATERIAL
148
0.0
149
0.0
149
0.0
 93
        0
 94
      127
282
     0
 72
     0
 77
     0
171
     0
175
     0
179
     0
273
     0
  0
XRECORD
  5
24
102
{ACAD_REACTORS
330
22
102
}
330
22
100
AcDbXrecord
280
     1
270
     1
271
     1
  0
XRECORD
  5
23
102
{ACAD_REACTORS
330
22
102
}
330
22
100
AcDbXrecord
280
     1
270
     1
271
     1
  0
XRECORD
  5
27
102
{ACAD_REACTORS
330
22
102
}
330
22
100
AcDbXrecord
280
     1
270
     1
271
     1
  0
XRECORD
  5
26
102
{ACAD_REACTORS
330
22
102
}
330
22
100
AcDbXrecord
280
     1
270
     1
271
     1
  0
XRECORD
  5
28
102
{ACAD_REACTORS
330
22
102
}
330
22
100
AcDbXrecord
280
     1
270
     1
271
     1
  0
XRECORD
  5
25
102
{ACAD_REACTORS
330
22
102
}
330
22
100
AcDbXrecord
280
     1
270
     1
271
     1
  0
XRECORD
  5
3F8
102
{ACAD_REACTORS
330
3F7
102
}
330
3F7
100
AcDbXrecord
280
     1
102
ACAD_ROUNDTRIP_2012_MLEADER_STYLE
298
     1
  0
XRECORD
  5
3FA
102
{ACAD_REACTORS
330
3F9
102
}
330
3F9
100
AcDbXrecord
280
     1
102
DISPLAYNAME
  1
Imperial24
102
FLAGS
 90
        0
  0
CELLSTYLEMAP
  5
3BF
102
{ACAD_REACTORS
330
3BE
102
}
330
3BE
100
AcDbCellStyleMap
 90
        3
300
CELLSTYLE
  1
TABLEFORMAT_BEGIN
 90
        5
170
     1
 91
        0
 92
    32768
 62
   257
 93
        1
300
CONTENTFORMAT
  1
CONTENTFORMAT_BEGIN
 90
        0
 91
        0
 92
      512
 93
        0
300

 40
0.0
140
1.0
 94
        5
 62
     0
340
55
144
0.25
309
CONTENTFORMAT_END
171
     0
 94
        0
309
TABLEFORMAT_END
  1
CELLSTYLE_BEGIN
 90
        1
 91
        1
300
_TITLE
309
CELLSTYLE_END
300
CELLSTYLE
  1
TABLEFORMAT_BEGIN
 90
        5
170
     1
 91
        0
 92
        0
 62
   257
 93
        1
300
CONTENTFORMAT
  1
CONTENTFORMAT_BEGIN
 90
        0
 91
        0
 92
      512
 93
        0
300

 40
0.0
140
1.0
 94
        5
 62
     0
340
55
144
0.18
309
CONTENTFORMAT_END
171
     0
 94
        0
309
TABLEFORMAT_END
  1
CELLSTYLE_BEGIN
 90
        2
 91
        1
300
_HEADER
309
CELLSTYLE_END
300
CELLSTYLE
  1
TABLEFORMAT_BEGIN
 90
        5
170
     1
 91
        0
 92
        0
 62
   257
 93
        1
300
CONTENTFORMAT
  1
CONTENTFORMAT_BEGIN
 90
        0
 91
        0
 92
      512
 93
        0
300

 40
0.0
140
1.0
 94
        2
 62
     0
340
55
144
0.18
309
CONTENTFORMAT_END
171
     0
 94
        0
309
TABLEFORMAT_END
  1
CELLSTYLE_BEGIN
 90
        3
 91
        2
300
_DATA
309
CELLSTYLE_END
  0
XRECORD
  5
3F5
102
{ACAD_REACTORS
330
3BE
102
}
330
3BE
100
AcDbXrecord
280
     1
102
ACAD_ROUNDTRIP_PRE2007_TABLESTYLE
 90
      512
 91
        0
  1

 92
      512
 93
        0
  2

 94
      512
 95
        0
  3

  0
XRECORD
  5
3D0
102
{ACAD_REACTORS
330
3CF
102
}
330
3CF
100
AcDbXrecord
280
     1
102
RTVSPost2010Prop28
280
     1
102
RTVSPost2010PropOp28
 70
     1
102
RTVSPost2010Prop29
280
     1
102
RTVSPost2010PropOp29
 70
     1
102
RTVSPost2010Prop30
280
     0
102
RTVSPost2010PropOp30
 70
     1
102
RTVSPost2010Prop31
280
     0
102
RTVSPost2010PropOp31
 70
     1
102
RTVSPost2010Prop32
280
     0
102
RTVSPost2010PropOp32
 70
     1
102
RTVSPost2010Prop33
280
     0
102
RTVSPost2010PropOp33
 70
     1
102
RTVSPost2010Prop34
280
     0
102
RTVSPost2010PropOp34
 70
     1
102
RTVSPost2010Prop35
280
     0
102
RTVSPost2010PropOp35
 70
     1
102
RTVSPost2010Prop36
280
     0
102
RTVSPost2010PropOp36
 70
     1
102
RTVSPost2010Prop37
 90
       50
102
RTVSPost2010PropOp37
 70
     1
102
RTVSPost2010Prop38
140
0.0
102
RTVSPost2010PropOp38
 70
     1
102
RTVSPost2010Prop39
140
1.0
102
RTVSPost2010PropOp39
 70
     1
102
RTVSPost2010Prop40
 90
        0
102
RTVSPost2010PropOp40
 70
     1
102
RTVSPost2010Prop41ColorIndex
 90
       18
102
RTVSPost2010Prop41ColorRGB
 90
        0
102
RTVSPost2010PropOp41
 70
     1
102
RTVSPost2010Prop42
 90
       50
102
RTVSPost2010PropOp42
 70
     1
102
RTVSPost2010Prop43
 90
        3
102
RTVSPost2010PropOp43
 70
     1
102
RTVSPost2010Prop44ColorIndex
 90
        5
102
RTVSPost2010Prop44ColorRGB
 90
      255
102
RTVSPost2010PropOp44
 70
     1
102
RTVSPost2010Prop45
280
     0
102
RTVSPost2010PropOp45
 70
     1
102
RTVSPost2010Prop46
 90
       50
102
RTVSPost2010PropOp46
 70
     1
102
RTVSPost2010Prop47
 90
       50
102
RTVSPost2010PropOp47
 70
     1
102
RTVSPost2010Prop48
 90
       50
102
RTVSPost2010PropOp48
 70
     1
102
RTVSPost2010Prop49
280
     0
102
RTVSPost2010PropOp49
 70
     1
102
RTVSPost2010Prop50
 90
       50
102
RTVSPost2010PropOp50
 70
     1
102
RTVSPost2010Prop51ColorIndex
 90
      256
102
RTVSPost2010Prop51ColorRGB
 90
-16777216
102
RTVSPost2010PropOp51
 70
     0
102
RTVSPost2010Prop52
140
1.0
102
RTVSPost2010PropOp52
 70
     0
102
RTVSPost2010Prop53
 90
        2
102
RTVSPost2010PropOp53
 70
     1
102
RTVSPost2010Prop54
  1
strokes_ogs.tif
102
RTVSPost2010PropOp54
 70
     1
102
RTVSPost2010Prop55
280
     0
102
RTVSPost2010PropOp55
 70
     1
102
RTVSPost2010Prop56
140
1.0
102
RTVSPost2010PropOp56
 70
     1
102
RTVSPost2010Prop57
140
1.0
102
RTVSPost2010PropOp57
 70
     1
102
RTVSPropertyOp0
 70
     1
102
RTVSPropertyOp1
 70
     1
102
RTVSPropertyOp2
 70
     1
102
RTVSPropertyOp3
 70
     1
102
RTVSPropertyOp4
 70
     1
102
RTVSPropertyOp5
 70
     1
102
RTVSPropertyOp6
 70
     1
102
RTVSPropertyOp7
 70
     1
102
RTVSPropertyOp8
 70
     1
102
RTVSPropertyOp9
 70
     1
102
RTVSPropertyOp10
 70
     1
102
RTVSPropertyOp11
 70
     1
102
RTVSPropertyOp12
 70
     1
102
RTVSPropertyOp13
 70
     1
102
RTVSPropertyOp14
 70
     1
102
RTVSPropertyOp15
 70
     1
102
RTVSPropertyOp16
 70
     1
102
RTVSPropertyOp17
 70
     1
102
RTVSPropertyOp18
 70
     1
102
RTVSPropertyOp19
 70
     1
102
RTVSPropertyOp20
 70
     1
102
RTVSPropertyOp21
 70
     1
102
RTVSPropertyOp22
 70
     1
102
RTVSPropertyOp23
 70
     1
102
RTVSPropertyOp24
 70
     1
102
RTVSPropertyOp25
 70
     1
102
RTVSPropertyOp26
 70
     1
102
RTVSPropertyOp27
 70
     1
102
RTVSPropertyOp28
 70
     1
102
RTVSPropertyOp29
 70
     1
102
RTVSPropertyOp30
 70
     1
102
RTVSPropertyOp31
 70
     1
102
RTVSPropertyOp32
 70
     1
102
RTVSPropertyOp33
 70
     1
102
RTVSPropertyOp34
 70
     1
102
RTVSPropertyOp35
 70
     1
102
RTVSPropertyOp36
 70
     1
102
RTVSPropertyOp37
 70
     1
102
RTVSPropertyOp38
 70
     1
102
RTVSPropertyOp39
 70
     1
102
RTVSPropertyOp40
 70
     1
102
RTVSPropertyOp41
 70
     1
102
RTVSPropertyOp42
 70
     1
102
RTVSPropertyOp43
 70
     1
102
RTVSPropertyOp44
 70
     1
102
RTVSPropertyOp45
 70
     1
102
RTVSPropertyOp46
 70
     1
102
RTVSPropertyOp47
 70
     1
102
RTVSPropertyOp48
 70
     1
102
RTVSPropertyOp49
 70
     1
102
RTVSPropertyOp50
 70
     1
102
RTVSPropertyOp51
 70
     0
102
RTVSPropertyOp52
 70
     0
102
RTVSPropertyOp53
 70
     1
102
RTVSPropertyOp54
 70
     1
102
RTVSPropertyOp55
 70
     1
102
RTVSPropertyOp56
 70
     1
102
RTVSPropertyOp57
 70
     1
102
RTVSPropertyOp58
 70
     1
102
RTVSPropertyOp59
 70
     1
102
RTVSPropertyOp60
 70
     1
102
RTVSPropertyOp61
 70
     1
102
RTVSPropertyOp62
 70
     1
  0
XRECORD
  5
3CE
102
{ACAD_REACTORS
330
3CD
102
}
330
3CD
100
AcDbXrecord
280
     1
102
RTVSPost2010Prop28
280
     0
102
RTVSPost2010PropOp28
 70
     1
102
RTVSPost2010Prop29
280
     1
102
RTVSPost2010PropOp29
 70
     1
102
RTVSPost2010Prop30
280
     1
102
RTVSPost2010PropOp30
 70
     1
102
RTVSPost2010Prop31
280
     0
102
RTVSPost2010PropOp31
 70
     1
102
RTVSPost2010Prop32
280
     0
102
RTVSPost2010PropOp32
 70
     1
102
RTVSPost2010Prop33
280
     0
102
RTVSPost2010PropOp33
 70
     1
102
RTVSPost2010Prop34
280
     0
102
RTVSPost2010PropOp34
 70
     1
102
RTVSPost2010Prop35
280
     0
102
RTVSPost2010PropOp35
 70
     1
102
RTVSPost2010Prop36
280
     0
102
RTVSPost2010PropOp36
 70
     1
102
RTVSPost2010Prop37
 90
       50
102
RTVSPost2010PropOp37
 70
     1
102
RTVSPost2010Prop38
140
0.0
102
RTVSPost2010PropOp38
 70
     1
102
RTVSPost2010Prop39
140
1.0
102
RTVSPost2010PropOp39
 70
     1
102
RTVSPost2010Prop40
 90
        0
102
RTVSPost2010PropOp40
 70
     1
102
RTVSPost2010Prop41ColorIndex
 90
       18
102
RTVSPost2010Prop41ColorRGB
 90
        0
102
RTVSPost2010PropOp41
 70
     1
102
RTVSPost2010Prop42
 90
       50
102
RTVSPost2010PropOp42
 70
     1
102
RTVSPost2010Prop43
 90
        3
102
RTVSPost2010PropOp43
 70
     1
102
RTVSPost2010Prop44ColorIndex
 90
        5
102
RTVSPost2010Prop44ColorRGB
 90
      255
102
RTVSPost2010PropOp44
 70
     1
102
RTVSPost2010Prop45
280
     0
102
RTVSPost2010PropOp45
 70
     1
102
RTVSPost2010Prop46
 90
       50
102
RTVSPost2010PropOp46
 70
     1
102
RTVSPost2010Prop47
 90
       50
102
RTVSPost2010PropOp47
 70
     1
102
RTVSPost2010Prop48
 90
       50
102
RTVSPost2010PropOp48
 70
     1
102
RTVSPost2010Prop49
280
     0
102
RTVSPost2010PropOp49
 70
     1
102
RTVSPost2010Prop50
 90
       50
102
RTVSPost2010PropOp50
 70
     1
102
RTVSPost2010Prop51ColorIndex
 90
      256
102
RTVSPost2010Prop51ColorRGB
 90
-16777216
102
RTVSPost2010PropOp51
 70
     0
102
RTVSPost2010Prop52
140
1.0
102
RTVSPost2010PropOp52
 70
     0
102
RTVSPost2010Prop53
 90
        2
102
RTVSPost2010PropOp53
 70
     1
102
RTVSPost2010Prop54
  1
strokes_ogs.tif
102
RTVSPost2010PropOp54
 70
     1
102
RTVSPost2010Prop55
280
     0
102
RTVSPost2010PropOp55
 70
     1
102
RTVSPost2010Prop56
140
1.0
102
RTVSPost2010PropOp56
 70
     1
102
RTVSPost2010Prop57
140
1.0
102
RTVSPost2010PropOp57
 70
     1
102
RTVSPropertyOp0
 70
     1
102
RTVSPropertyOp1
 70
     1
102
RTVSPropertyOp2
 70
     1
102
RTVSPropertyOp3
 70
     1
102
RTVSPropertyOp4
 70
     1
102
RTVSPropertyOp5
 70
     1
102
RTVSPropertyOp6
 70
     1
102
RTVSPropertyOp7
 70
     1
102
RTVSPropertyOp8
 70
     1
102
RTVSPropertyOp9
 70
     1
102
RTVSPropertyOp10
 70
     1
102
RTVSPropertyOp11
 70
     1
102
RTVSPropertyOp12
 70
     1
102
RTVSPropertyOp13
 70
     1
102
RTVSPropertyOp14
 70
     1
102
RTVSPropertyOp15
 70
     1
102
RTVSPropertyOp16
 70
     1
102
RTVSPropertyOp17
 70
     1
102
RTVSPropertyOp18
 70
     1
102
RTVSPropertyOp19
 70
     1
102
RTVSPropertyOp20
 70
     1
102
RTVSPropertyOp21
 70
     1
102
RTVSPropertyOp22
 70
     1
102
RTVSPropertyOp23
 70
     1
102
RTVSPropertyOp24
 70
     1
102
RTVSPropertyOp25
 70
     1
102
RTVSPropertyOp26
 70
     1
102
RTVSPropertyOp27
 70
     1
102
RTVSPropertyOp28
 70
     1
102
RTVSPropertyOp29
 70
     1
102
RTVSPropertyOp30
 70
     1
102
RTVSPropertyOp31
 70
     1
102
RTVSPropertyOp32
 70
     1
102
RTVSPropertyOp33
 70
     1
102
RTVSPropertyOp34
 70
     1
102
RTVSPropertyOp35
 70
     1
102
RTVSPropertyOp36
 70
     1
102
RTVSPropertyOp37
 70
     1
102
RTVSPropertyOp38
 70
     1
102
RTVSPropertyOp39
 70
     1
102
RTVSPropertyOp40
 70
     1
102
RTVSPropertyOp41
 70
     1
102
RTVSPropertyOp42
 70
     1
102
RTVSPropertyOp43
 70
     1
102
RTVSPropertyOp44
 70
     1
102
RTVSPropertyOp45
 70
     1
102
RTVSPropertyOp46
 70
     1
102
RTVSPropertyOp47
 70
     1
102
RTVSPropertyOp48
 70
     1
102
RTVSPropertyOp49
 70
     1
102
RTVSPropertyOp50
 70
     1
102
RTVSPropertyOp51
 70
     0
102
RTVSPropertyOp52
 70
     0
102
RTVSPropertyOp53
 70
     1
102
RTVSPropertyOp54
 70
     1
102
RTVSPropertyOp55
 70
     1
102
RTVSPropertyOp56
 70
     1
102
RTVSPropertyOp57
 70
     1
102
RTVSPropertyOp58
 70
     1
102
RTVSPropertyOp59
 70
     1
102
RTVSPropertyOp60
 70
     1
102
RTVSPropertyOp61
 70
     1
102
RTVSPropertyOp62
 70
     1
  0
XRECORD
  5
3DC
102
{ACAD_REACTORS
330
3DB
102
}
330
3DB
100
AcDbXrecord
280
     1
102
RTVSPost2010Prop28
280
     0
102
RTVSPost2010PropOp28
 70
     1
102
RTVSPost2010Prop29
280
     1
102
RTVSPost2010PropOp29
 70
     1
102
RTVSPost2010Prop30
280
     1
102
RTVSPost2010PropOp30
 70
     1
102
RTVSPost2010Prop31
280
     0
102
RTVSPost2010PropOp31
 70
     1
102
RTVSPost2010Prop32
280
     0
102
RTVSPost2010PropOp32
 70
     1
102
RTVSPost2010Prop33
280
     0
102
RTVSPost2010PropOp33
 70
     1
102
RTVSPost2010Prop34
280
     0
102
RTVSPost2010PropOp34
 70
     1
102
RTVSPost2010Prop35
280
     0
102
RTVSPost2010PropOp35
 70
     1
102
RTVSPost2010Prop36
280
     0
102
RTVSPost2010PropOp36
 70
     1
102
RTVSPost2010Prop37
 90
       50
102
RTVSPost2010PropOp37
 70
     1
102
RTVSPost2010Prop38
140
0.0
102
RTVSPost2010PropOp38
 70
     1
102
RTVSPost2010Prop39
140
1.0
102
RTVSPost2010PropOp39
 70
     1
102
RTVSPost2010Prop40
 90
        0
102
RTVSPost2010PropOp40
 70
     1
102
RTVSPost2010Prop41ColorIndex
 90
       18
102
RTVSPost2010Prop41ColorRGB
 90
        0
102
RTVSPost2010PropOp41
 70
     1
102
RTVSPost2010Prop42
 90
       50
102
RTVSPost2010PropOp42
 70
     1
102
RTVSPost2010Prop43
 90
        3
102
RTVSPost2010PropOp43
 70
     1
102
RTVSPost2010Prop44ColorIndex
 90
        5
102
RTVSPost2010Prop44ColorRGB
 90
      255
102
RTVSPost2010PropOp44
 70
     1
102
RTVSPost2010Prop45
280
     0
102
RTVSPost2010PropOp45
 70
     1
102
RTVSPost2010Prop46
 90
       50
102
RTVSPost2010PropOp46
 70
     1
102
RTVSPost2010Prop47
 90
       50
102
RTVSPost2010PropOp47
 70
     1
102
RTVSPost2010Prop48
 90
       50
102
RTVSPost2010PropOp48
 70
     1
102
RTVSPost2010Prop49
280
     0
102
RTVSPost2010PropOp49
 70
     1
102
RTVSPost2010Prop50
 90
       50
102
RTVSPost2010PropOp50
 70
     1
102
RTVSPost2010Prop51ColorIndex
 90
      256
102
RTVSPost2010Prop51ColorRGB
 90
-16777216
102
RTVSPost2010PropOp51
 70
     0
102
RTVSPost2010Prop52
140
1.0
102
RTVSPost2010PropOp52
 70
     0
102
RTVSPost2010Prop53
 90
        2
102
RTVSPost2010PropOp53
 70
     1
102
RTVSPost2010Prop54
  1
strokes_ogs.tif
102
RTVSPost2010PropOp54
 70
     1
102
RTVSPost2010Prop55
280
     0
102
RTVSPost2010PropOp55
 70
     1
102
RTVSPost2010Prop56
140
1.0
102
RTVSPost2010PropOp56
 70
     1
102
RTVSPost2010Prop57
140
1.0
102
RTVSPost2010PropOp57
 70
     1
102
RTVSPropertyOp0
 70
     1
102
RTVSPropertyOp1
 70
     1
102
RTVSPropertyOp2
 70
     1
102
RTVSPropertyOp3
 70
     1
102
RTVSPropertyOp4
 70
     1
102
RTVSPropertyOp5
 70
     1
102
RTVSPropertyOp6
 70
     1
102
RTVSPropertyOp7
 70
     1
102
RTVSPropertyOp8
 70
     1
102
RTVSPropertyOp9
 70
     1
102
RTVSPropertyOp10
 70
     1
102
RTVSPropertyOp11
 70
     1
102
RTVSPropertyOp12
 70
     1
102
RTVSPropertyOp13
 70
     1
102
RTVSPropertyOp14
 70
     1
102
RTVSPropertyOp15
 70
     1
102
RTVSPropertyOp16
 70
     1
102
RTVSPropertyOp17
 70
     1
102
RTVSPropertyOp18
 70
     1
102
RTVSPropertyOp19
 70
     1
102
RTVSPropertyOp20
 70
     1
102
RTVSPropertyOp21
 70
     1
102
RTVSPropertyOp22
 70
     1
102
RTVSPropertyOp23
 70
     1
102
RTVSPropertyOp24
 70
     1
102
RTVSPropertyOp25
 70
     1
102
RTVSPropertyOp26
 70
     1
102
RTVSPropertyOp27
 70
     1
102
RTVSPropertyOp28
 70
     1
102
RTVSPropertyOp29
 70
     1
102
RTVSPropertyOp30
 70
     1
102
RTVSPropertyOp31
 70
     1
102
RTVSPropertyOp32
 70
     1
102
RTVSPropertyOp33
 70
     1
102
RTVSPropertyOp34
 70
     1
102
RTVSPropertyOp35
 70
     1
102
RTVSPropertyOp36
 70
     1
102
RTVSPropertyOp37
 70
     1
102
RTVSPropertyOp38
 70
     1
102
RTVSPropertyOp39
 70
     1
102
RTVSPropertyOp40
 70
     1
102
RTVSPropertyOp41
 70
     1
102
RTVSPropertyOp42
 70
     1
102
RTVSPropertyOp43
 70
     1
102
RTVSPropertyOp44
 70
     1
102
RTVSPropertyOp45
 70
     1
102
RTVSPropertyOp46
 70
     1
102
RTVSPropertyOp47
 70
     1
102
RTVSPropertyOp48
 70
     1
102
RTVSPropertyOp49
 70
     1
102
RTVSPropertyOp50
 70
     1
102
RTVSPropertyOp51
 70
     0
102
RTVSPropertyOp52
 70
     0
102
RTVSPropertyOp53
 70
     1
102
RTVSPropertyOp54
 70
     1
102
RTVSPropertyOp55
 70
     1
102
RTVSPropertyOp56
 70
     1
102
RTVSPropertyOp57
 70
     1
102
RTVSPropertyOp58
 70
     1
102
RTVSPropertyOp59
 70
     1
102
RTVSPropertyOp60
 70
     1
102
RTVSPropertyOp61
 70
     1
102
RTVSPropertyOp62
 70
     1
  0
XRECORD
  5
3E4
102
{ACAD_REACTORS
330
3E3
102
}
330
3E3
100
AcDbXrecord
280
     1
102
RTVSPost2010Prop28
280
     0
102
RTVSPost2010PropOp28
 70
     1
102
RTVSPost2010Prop29
280
     1
102
RTVSPost2010PropOp29
 70
     1
102
RTVSPost2010Prop30
280
     1
102
RTVSPost2010PropOp30
 70
     1
102
RTVSPost2010Prop31
280
     0
102
RTVSPost2010PropOp31
 70
     1
102
RTVSPost2010Prop32
280
     0
102
RTVSPost2010PropOp32
 70
     1
102
RTVSPost2010Prop33
280
     0
102
RTVSPost2010PropOp33
 70
     1
102
RTVSPost2010Prop34
280
     0
102
RTVSPost2010PropOp34
 70
     1
102
RTVSPost2010Prop35
280
     0
102
RTVSPost2010PropOp35
 70
     1
102
RTVSPost2010Prop36
280
     0
102
RTVSPost2010PropOp36
 70
     1
102
RTVSPost2010Prop37
 90
       50
102
RTVSPost2010PropOp37
 70
     1
102
RTVSPost2010Prop38
140
0.0
102
RTVSPost2010PropOp38
 70
     1
102
RTVSPost2010Prop39
140
1.0
102
RTVSPost2010PropOp39
 70
     1
102
RTVSPost2010Prop40
 90
        0
102
RTVSPost2010PropOp40
 70
     1
102
RTVSPost2010Prop41ColorIndex
 90
       18
102
RTVSPost2010Prop41ColorRGB
 90
        0
102
RTVSPost2010PropOp41
 70
     1
102
RTVSPost2010Prop42
 90
       50
102
RTVSPost2010PropOp42
 70
     1
102
RTVSPost2010Prop43
 90
        3
102
RTVSPost2010PropOp43
 70
     1
102
RTVSPost2010Prop44ColorIndex
 90
        5
102
RTVSPost2010Prop44ColorRGB
 90
      255
102
RTVSPost2010PropOp44
 70
     1
102
RTVSPost2010Prop45
280
     0
102
RTVSPost2010PropOp45
 70
     1
102
RTVSPost2010Prop46
 90
       50
102
RTVSPost2010PropOp46
 70
     1
102
RTVSPost2010Prop47
 90
       50
102
RTVSPost2010PropOp47
 70
     1
102
RTVSPost2010Prop48
 90
       50
102
RTVSPost2010PropOp48
 70
     1
102
RTVSPost2010Prop49
280
     0
102
RTVSPost2010PropOp49
 70
     1
102
RTVSPost2010Prop50
 90
       50
102
RTVSPost2010PropOp50
 70
     1
102
RTVSPost2010Prop51ColorIndex
 90
      256
102
RTVSPost2010Prop51ColorRGB
 90
-16777216
102
RTVSPost2010PropOp51
 70
     0
102
RTVSPost2010Prop52
140
1.0
102
RTVSPost2010PropOp52
 70
     0
102
RTVSPost2010Prop53
 90
        2
102
RTVSPost2010PropOp53
 70
     1
102
RTVSPost2010Prop54
  1
strokes_ogs.tif
102
RTVSPost2010PropOp54
 70
     1
102
RTVSPost2010Prop55
280
     0
102
RTVSPost2010PropOp55
 70
     1
102
RTVSPost2010Prop56
140
1.0
102
RTVSPost2010PropOp56
 70
     1
102
RTVSPost2010Prop57
140
1.0
102
RTVSPost2010PropOp57
 70
     1
102
RTVSPropertyOp0
 70
     1
102
RTVSPropertyOp1
 70
     1
102
RTVSPropertyOp2
 70
     1
102
RTVSPropertyOp3
 70
     1
102
RTVSPropertyOp4
 70
     1
102
RTVSPropertyOp5
 70
     1
102
RTVSPropertyOp6
 70
     1
102
RTVSPropertyOp7
 70
     1
102
RTVSPropertyOp8
 70
     1
102
RTVSPropertyOp9
 70
     1
102
RTVSPropertyOp10
 70
     1
102
RTVSPropertyOp11
 70
     1
102
RTVSPropertyOp12
 70
     1
102
RTVSPropertyOp13
 70
     1
102
RTVSPropertyOp14
 70
     1
102
RTVSPropertyOp15
 70
     1
102
RTVSPropertyOp16
 70
     1
102
RTVSPropertyOp17
 70
     1
102
RTVSPropertyOp18
 70
     1
102
RTVSPropertyOp19
 70
     1
102
RTVSPropertyOp20
 70
     1
102
RTVSPropertyOp21
 70
     1
102
RTVSPropertyOp22
 70
     1
102
RTVSPropertyOp23
 70
     1
102
RTVSPropertyOp24
 70
     1
102
RTVSPropertyOp25
 70
     1
102
RTVSPropertyOp26
 70
     1
102
RTVSPropertyOp27
 70
     1
102
RTVSPropertyOp28
 70
     1
102
RTVSPropertyOp29
 70
     1
102
RTVSPropertyOp30
 70
     1
102
RTVSPropertyOp31
 70
     1
102
RTVSPropertyOp32
 70
     1
102
RTVSPropertyOp33
 70
     1
102
RTVSPropertyOp34
 70
     1
102
RTVSPropertyOp35
 70
     1
102
RTVSPropertyOp36
 70
     1
102
RTVSPropertyOp37
 70
     1
102
RTVSPropertyOp38
 70
     1
102
RTVSPropertyOp39
 70
     1
102
RTVSPropertyOp40
 70
     1
102
RTVSPropertyOp41
 70
     1
102
RTVSPropertyOp42
 70
     1
102
RTVSPropertyOp43
 70
     1
102
RTVSPropertyOp44
 70
     1
102
RTVSPropertyOp45
 70
     1
102
RTVSPropertyOp46
 70
     1
102
RTVSPropertyOp47
 70
     1
102
RTVSPropertyOp48
 70
     1
102
RTVSPropertyOp49
 70
     1
102
RTVSPropertyOp50
 70
     1
102
RTVSPropertyOp51
 70
     0
102
RTVSPropertyOp52
 70
     0
102
RTVSPropertyOp53
 70
     1
102
RTVSPropertyOp54
 70
     1
102
RTVSPropertyOp55
 70
     1
102
RTVSPropertyOp56
 70
     1
102
RTVSPropertyOp57
 70
     1
102
RTVSPropertyOp58
 70
     1
102
RTVSPropertyOp59
 70
     1
102
RTVSPropertyOp60
 70
     1
102
RTVSPropertyOp61
 70
     1
102
RTVSPropertyOp62
 70
     1
  0
XRECORD
  5
3D6
102
{ACAD_REACTORS
330
3D5
102
}
330
3D5
100
AcDbXrecord
280
     1
102
RTVSPost2010Prop28
280
     0
102
RTVSPost2010PropOp28
 70
     1
102
RTVSPost2010Prop29
280
     1
102
RTVSPost2010PropOp29
 70
     1
102
RTVSPost2010Prop30
280
     1
102
RTVSPost2010PropOp30
 70
     1
102
RTVSPost2010Prop31
280
     0
102
RTVSPost2010PropOp31
 70
     1
102
RTVSPost2010Prop32
280
     0
102
RTVSPost2010PropOp32
 70
     1
102
RTVSPost2010Prop33
280
     0
102
RTVSPost2010PropOp33
 70
     1
102
RTVSPost2010Prop34
280
     0
102
RTVSPost2010PropOp34
 70
     1
102
RTVSPost2010Prop35
280
     0
102
RTVSPost2010PropOp35
 70
     1
102
RTVSPost2010Prop36
280
     0
102
RTVSPost2010PropOp36
 70
     1
102
RTVSPost2010Prop37
 90
       50
102
RTVSPost2010PropOp37
 70
     1
102
RTVSPost2010Prop38
140
0.0
102
RTVSPost2010PropOp38
 70
     1
102
RTVSPost2010Prop39
140
1.0
102
RTVSPost2010PropOp39
 70
     1
102
RTVSPost2010Prop40
 90
        0
102
RTVSPost2010PropOp40
 70
     1
102
RTVSPost2010Prop41ColorIndex
 90
       18
102
RTVSPost2010Prop41ColorRGB
 90
        0
102
RTVSPost2010PropOp41
 70
     1
102
RTVSPost2010Prop42
 90
       50
102
RTVSPost2010PropOp42
 70
     1
102
RTVSPost2010Prop43
 90
        3
102
RTVSPost2010PropOp43
 70
     1
102
RTVSPost2010Prop44ColorIndex
 90
        5
102
RTVSPost2010Prop44ColorRGB
 90
      255
102
RTVSPost2010PropOp44
 70
     1
102
RTVSPost2010Prop45
280
     0
102
RTVSPost2010PropOp45
 70
     1
102
RTVSPost2010Prop46
 90
       50
102
RTVSPost2010PropOp46
 70
     1
102
RTVSPost2010Prop47
 90
       50
102
RTVSPost2010PropOp47
 70
     1
102
RTVSPost2010Prop48
 90
       50
102
RTVSPost2010PropOp48
 70
     1
102
RTVSPost2010Prop49
280
     0
102
RTVSPost2010PropOp49
 70
     1
102
RTVSPost2010Prop50
 90
       50
102
RTVSPost2010PropOp50
 70
     1
102
RTVSPost2010Prop51ColorIndex
 90
      256
102
RTVSPost2010Prop51ColorRGB
 90
-16777216
102
RTVSPost2010PropOp51
 70
     0
102
RTVSPost2010Prop52
140
1.0
102
RTVSPost2010PropOp52
 70
     0
102
RTVSPost2010Prop53
 90
        2
102
RTVSPost2010PropOp53
 70
     1
102
RTVSPost2010Prop54
  1
strokes_ogs.tif
102
RTVSPost2010PropOp54
 70
     1
102
RTVSPost2010Prop55
280
     0
102
RTVSPost2010PropOp55
 70
     1
102
RTVSPost2010Prop56
140
1.0
102
RTVSPost2010PropOp56
 70
     1
102
RTVSPost2010Prop57
140
1.0
102
RTVSPost2010PropOp57
 70
     1
102
RTVSPropertyOp0
 70
     1
102
RTVSPropertyOp1
 70
     1
102
RTVSPropertyOp2
 70
     1
102
RTVSPropertyOp3
 70
     1
102
RTVSPropertyOp4
 70
     1
102
RTVSPropertyOp5
 70
     1
102
RTVSPropertyOp6
 70
     1
102
RTVSPropertyOp7
 70
     1
102
RTVSPropertyOp8
 70
     1
102
RTVSPropertyOp9
 70
     1
102
RTVSPropertyOp10
 70
     1
102
RTVSPropertyOp11
 70
     1
102
RTVSPropertyOp12
 70
     1
102
RTVSPropertyOp13
 70
     1
102
RTVSPropertyOp14
 70
     1
102
RTVSPropertyOp15
 70
     1
102
RTVSPropertyOp16
 70
     1
102
RTVSPropertyOp17
 70
     1
102
RTVSPropertyOp18
 70
     1
102
RTVSPropertyOp19
 70
     1
102
RTVSPropertyOp20
 70
     1
102
RTVSPropertyOp21
 70
     1
102
RTVSPropertyOp22
 70
     1
102
RTVSPropertyOp23
 70
     1
102
RTVSPropertyOp24
 70
     1
102
RTVSPropertyOp25
 70
     1
102
RTVSPropertyOp26
 70
     1
102
RTVSPropertyOp27
 70
     1
102
RTVSPropertyOp28
 70
     1
102
RTVSPropertyOp29
 70
     1
102
RTVSPropertyOp30
 70
     1
102
RTVSPropertyOp31
 70
     1
102
RTVSPropertyOp32
 70
     1
102
RTVSPropertyOp33
 70
     1
102
RTVSPropertyOp34
 70
     1
102
RTVSPropertyOp35
 70
     1
102
RTVSPropertyOp36
 70
     1
102
RTVSPropertyOp37
 70
     1
102
RTVSPropertyOp38
 70
     1
102
RTVSPropertyOp39
 70
     1
102
RTVSPropertyOp40
 70
     1
102
RTVSPropertyOp41
 70
     1
102
RTVSPropertyOp42
 70
     1
102
RTVSPropertyOp43
 70
     1
102
RTVSPropertyOp44
 70
     1
102
RTVSPropertyOp45
 70
     1
102
RTVSPropertyOp46
 70
     1
102
RTVSPropertyOp47
 70
     1
102
RTVSPropertyOp48
 70
     1
102
RTVSPropertyOp49
 70
     1
102
RTVSPropertyOp50
 70
     1
102
RTVSPropertyOp51
 70
     0
102
RTVSPropertyOp52
 70
     0
102
RTVSPropertyOp53
 70
     1
102
RTVSPropertyOp54
 70
     1
102
RTVSPropertyOp55
 70
     1
102
RTVSPropertyOp56
 70
     1
102
RTVSPropertyOp57
 70
     1
102
RTVSPropertyOp58
 70
     1
102
RTVSPropertyOp59
 70
     1
102
RTVSPropertyOp60
 70
     1
102
RTVSPropertyOp61
 70
     1
102
RTVSPropertyOp62
 70
     1
  0
XRECORD
  5
3DA
102
{ACAD_REACTORS
330
3D9
102
}
330
3D9
100
AcDbXrecord
280
     1
102
RTVSPost2010Prop28
280
     0
102
RTVSPost2010PropOp28
 70
     1
102
RTVSPost2010Prop29
280
     1
102
RTVSPost2010PropOp29
 70
     1
102
RTVSPost2010Prop30
280
     1
102
RTVSPost2010PropOp30
 70
     1
102
RTVSPost2010Prop31
280
     0
102
RTVSPost2010PropOp31
 70
     1
102
RTVSPost2010Prop32
280
     0
102
RTVSPost2010PropOp32
 70
     1
102
RTVSPost2010Prop33
280
     0
102
RTVSPost2010PropOp33
 70
     1
102
RTVSPost2010Prop34
280
     0
102
RTVSPost2010PropOp34
 70
     1
102
RTVSPost2010Prop35
280
     0
102
RTVSPost2010PropOp35
 70
     1
102
RTVSPost2010Prop36
280
     0
102
RTVSPost2010PropOp36
 70
     1
102
RTVSPost2010Prop37
 90
       50
102
RTVSPost2010PropOp37
 70
     1
102
RTVSPost2010Prop38
140
0.0
102
RTVSPost2010PropOp38
 70
     1
102
RTVSPost2010Prop39
140
1.0
102
RTVSPost2010PropOp39
 70
     1
102
RTVSPost2010Prop40
 90
        0
102
RTVSPost2010PropOp40
 70
     1
102
RTVSPost2010Prop41ColorIndex
 90
       18
102
RTVSPost2010Prop41ColorRGB
 90
        0
102
RTVSPost2010PropOp41
 70
     1
102
RTVSPost2010Prop42
 90
       50
102
RTVSPost2010PropOp42
 70
     1
102
RTVSPost2010Prop43
 90
        3
102
RTVSPost2010PropOp43
 70
     1
102
RTVSPost2010Prop44ColorIndex
 90
        5
102
RTVSPost2010Prop44ColorRGB
 90
      255
102
RTVSPost2010PropOp44
 70
     1
102
RTVSPost2010Prop45
280
     0
102
RTVSPost2010PropOp45
 70
     1
102
RTVSPost2010Prop46
 90
       50
102
RTVSPost2010PropOp46
 70
     1
102
RTVSPost2010Prop47
 90
       50
102
RTVSPost2010PropOp47
 70
     1
102
RTVSPost2010Prop48
 90
       50
102
RTVSPost2010PropOp48
 70
     1
102
RTVSPost2010Prop49
280
     0
102
RTVSPost2010PropOp49
 70
     1
102
RTVSPost2010Prop50
 90
       50
102
RTVSPost2010PropOp50
 70
     1
102
RTVSPost2010Prop51ColorIndex
 90
      256
102
RTVSPost2010Prop51ColorRGB
 90
-16777216
102
RTVSPost2010PropOp51
 70
     0
102
RTVSPost2010Prop52
140
1.0
102
RTVSPost2010PropOp52
 70
     0
102
RTVSPost2010Prop53
 90
        2
102
RTVSPost2010PropOp53
 70
     1
102
RTVSPost2010Prop54
  1
strokes_ogs.tif
102
RTVSPost2010PropOp54
 70
     1
102
RTVSPost2010Prop55
280
     0
102
RTVSPost2010PropOp55
 70
     1
102
RTVSPost2010Prop56
140
1.0
102
RTVSPost2010PropOp56
 70
     1
102
RTVSPost2010Prop57
140
1.0
102
RTVSPost2010PropOp57
 70
     1
102
RTVSPropertyOp0
 70
     1
102
RTVSPropertyOp1
 70
     1
102
RTVSPropertyOp2
 70
     1
102
RTVSPropertyOp3
 70
     1
102
RTVSPropertyOp4
 70
     1
102
RTVSPropertyOp5
 70
     1
102
RTVSPropertyOp6
 70
     1
102
RTVSPropertyOp7
 70
     1
102
RTVSPropertyOp8
 70
     1
102
RTVSPropertyOp9
 70
     1
102
RTVSPropertyOp10
 70
     1
102
RTVSPropertyOp11
 70
     1
102
RTVSPropertyOp12
 70
     1
102
RTVSPropertyOp13
 70
     1
102
RTVSPropertyOp14
 70
     1
102
RTVSPropertyOp15
 70
     1
102
RTVSPropertyOp16
 70
     1
102
RTVSPropertyOp17
 70
     1
102
RTVSPropertyOp18
 70
     1
102
RTVSPropertyOp19
 70
     1
102
RTVSPropertyOp20
 70
     1
102
RTVSPropertyOp21
 70
     1
102
RTVSPropertyOp22
 70
     1
102
RTVSPropertyOp23
 70
     1
102
RTVSPropertyOp24
 70
     1
102
RTVSPropertyOp25
 70
     1
102
RTVSPropertyOp26
 70
     1
102
RTVSPropertyOp27
 70
     1
102
RTVSPropertyOp28
 70
     1
102
RTVSPropertyOp29
 70
     1
102
RTVSPropertyOp30
 70
     1
102
RTVSPropertyOp31
 70
     1
102
RTVSPropertyOp32
 70
     1
102
RTVSPropertyOp33
 70
     1
102
RTVSPropertyOp34
 70
     1
102
RTVSPropertyOp35
 70
     1
102
RTVSPropertyOp36
 70
     1
102
RTVSPropertyOp37
 70
     1
102
RTVSPropertyOp38
 70
     1
102
RTVSPropertyOp39
 70
     1
102
RTVSPropertyOp40
 70
     1
102
RTVSPropertyOp41
 70
     1
102
RTVSPropertyOp42
 70
     1
102
RTVSPropertyOp43
 70
     1
102
RTVSPropertyOp44
 70
     1
102
RTVSPropertyOp45
 70
     1
102
RTVSPropertyOp46
 70
     1
102
RTVSPropertyOp47
 70
     1
102
RTVSPropertyOp48
 70
     1
102
RTVSPropertyOp49
 70
     1
102
RTVSPropertyOp50
 70
     1
102
RTVSPropertyOp51
 70
     0
102
RTVSPropertyOp52
 70
     0
102
RTVSPropertyOp53
 70
     1
102
RTVSPropertyOp54
 70
     1
102
RTVSPropertyOp55
 70
     1
102
RTVSPropertyOp56
 70
     1
102
RTVSPropertyOp57
 70
     1
102
RTVSPropertyOp58
 70
     1
102
RTVSPropertyOp59
 70
     1
102
RTVSPropertyOp60
 70
     1
102
RTVSPropertyOp61
 70
     1
102
RTVSPropertyOp62
 70
     1
  0
XRECORD
  5
3F4
102
{ACAD_REACTORS
330
3F3
102
}
330
3F3
100
AcDbXrecord
280
     1
102
RTVSPost2010Prop28
280
     0
102
RTVSPost2010PropOp28
 70
     0
102
RTVSPost2010Prop29
280
     1
102
RTVSPost2010PropOp29
 70
     0
102
RTVSPost2010Prop30
280
     1
102
RTVSPost2010PropOp30
 70
     0
102
RTVSPost2010Prop31
280
     0
102
RTVSPost2010PropOp31
 70
     0
102
RTVSPost2010Prop32
280
     0
102
RTVSPost2010PropOp32
 70
     0
102
RTVSPost2010Prop33
280
     0
102
RTVSPost2010PropOp33
 70
     0
102
RTVSPost2010Prop34
280
     0
102
RTVSPost2010PropOp34
 70
     0
102
RTVSPost2010Prop35
280
     0
102
RTVSPost2010PropOp35
 70
     0
102
RTVSPost2010Prop36
280
     0
102
RTVSPost2010PropOp36
 70
     0
102
RTVSPost2010Prop37
 90
       50
102
RTVSPost2010PropOp37
 70
     0
102
RTVSPost2010Prop38
140
0.0
102
RTVSPost2010PropOp38
 70
     0
102
RTVSPost2010Prop39
140
1.0
102
RTVSPost2010PropOp39
 70
     0
102
RTVSPost2010Prop40
 90
        0
102
RTVSPost2010PropOp40
 70
     0
102
RTVSPost2010Prop41ColorIndex
 90
       18
102
RTVSPost2010Prop41ColorRGB
 90
        0
102
RTVSPost2010PropOp41
 70
     0
102
RTVSPost2010Prop42
 90
       50
102
RTVSPost2010PropOp42
 70
     0
102
RTVSPost2010Prop43
 90
        3
102
RTVSPost2010PropOp43
 70
     0
102
RTVSPost2010Prop44ColorIndex
 90
        5
102
RTVSPost2010Prop44ColorRGB
 90
      255
102
RTVSPost2010PropOp44
 70
     0
102
RTVSPost2010Prop45
280
     0
102
RTVSPost2010PropOp45
 70
     0
102
RTVSPost2010Prop46
 90
       50
102
RTVSPost2010PropOp46
 70
     0
102
RTVSPost2010Prop47
 90
       50
102
RTVSPost2010PropOp47
 70
     0
102
RTVSPost2010Prop48
 90
       50
102
RTVSPost2010PropOp48
 70
     0
102
RTVSPost2010Prop49
280
     0
102
RTVSPost2010PropOp49
 70
     0
102
RTVSPost2010Prop50
 90
       50
102
RTVSPost2010PropOp50
 70
     0
102
RTVSPost2010Prop51ColorIndex
 90
      256
102
RTVSPost2010Prop51ColorRGB
 90
-16777216
102
RTVSPost2010PropOp51
 70
     0
102
RTVSPost2010Prop52
140
1.0
102
RTVSPost2010PropOp52
 70
     0
102
RTVSPost2010Prop53
 90
        2
102
RTVSPost2010PropOp53
 70
     0
102
RTVSPost2010Prop54
  1
strokes_ogs.tif
102
RTVSPost2010PropOp54
 70
     0
102
RTVSPost2010Prop55
280
     0
102
RTVSPost2010PropOp55
 70
     0
102
RTVSPost2010Prop56
140
1.0
102
RTVSPost2010PropOp56
 70
     0
102
RTVSPost2010Prop57
140
1.0
102
RTVSPost2010PropOp57
 70
     0
102
RTVSPropertyOp0
 70
     0
102
RTVSPropertyOp1
 70
     0
102
RTVSPropertyOp2
 70
     0
102
RTVSPropertyOp3
 70
     0
102
RTVSPropertyOp4
 70
     0
102
RTVSPropertyOp5
 70
     0
102
RTVSPropertyOp6
 70
     0
102
RTVSPropertyOp7
 70
     0
102
RTVSPropertyOp8
 70
     0
102
RTVSPropertyOp9
 70
     0
102
RTVSPropertyOp10
 70
     0
102
RTVSPropertyOp11
 70
     0
102
RTVSPropertyOp12
 70
     0
102
RTVSPropertyOp13
 70
     0
102
RTVSPropertyOp14
 70
     2
102
RTVSPropertyOp15
 70
     0
102
RTVSPropertyOp16
 70
     0
102
RTVSPropertyOp17
 70
     0
102
RTVSPropertyOp18
 70
     0
102
RTVSPropertyOp19
 70
     0
102
RTVSPropertyOp20
 70
     0
102
RTVSPropertyOp21
 70
     0
102
RTVSPropertyOp22
 70
     0
102
RTVSPropertyOp23
 70
     0
102
RTVSPropertyOp24
 70
     0
102
RTVSPropertyOp25
 70
     0
102
RTVSPropertyOp26
 70
     0
102
RTVSPropertyOp27
 70
     0
102
RTVSPropertyOp28
 70
     0
102
RTVSPropertyOp29
 70
     0
102
RTVSPropertyOp30
 70
     0
102
RTVSPropertyOp31
 70
     0
102
RTVSPropertyOp32
 70
     0
102
RTVSPropertyOp33
 70
     0
102
RTVSPropertyOp34
 70
     0
102
RTVSPropertyOp35
 70
     0
102
RTVSPropertyOp36
 70
     0
102
RTVSPropertyOp37
 70
     0
102
RTVSPropertyOp38
 70
     0
102
RTVSPropertyOp39
 70
     0
102
RTVSPropertyOp40
 70
     0
102
RTVSPropertyOp41
 70
     0
102
RTVSPropertyOp42
 70
     0
102
RTVSPropertyOp43
 70
     0
102
RTVSPropertyOp44
 70
     0
102
RTVSPropertyOp45
 70
     0
102
RTVSPropertyOp46
 70
     0
102
RTVSPropertyOp47
 70
     0
102
RTVSPropertyOp48
 70
     0
102
RTVSPropertyOp49
 70
     0
102
RTVSPropertyOp50
 70
     0
102
RTVSPropertyOp51
 70
     0
102
RTVSPropertyOp52
 70
     0
102
RTVSPropertyOp53
 70
     0
102
RTVSPropertyOp54
 70
     0
102
RTVSPropertyOp55
 70
     0
102
RTVSPropertyOp56
 70
     0
102
RTVSPropertyOp57
 70
     0
102
RTVSPropertyOp58
 70
     0
102
RTVSPropertyOp59
 70
     0
102
RTVSPropertyOp60
 70
     0
102
RTVSPropertyOp61
 70
     0
102
RTVSPropertyOp62
 70
     0
  0
XRECORD
  5
3E2
102
{ACAD_REACTORS
330
3E1
102
}
330
3E1
100
AcDbXrecord
280
     1
102
RTVSPost2010Prop28
280
     0
102
RTVSPost2010PropOp28
 70
     1
102
RTVSPost2010Prop29
280
     1
102
RTVSPost2010PropOp29
 70
     1
102
RTVSPost2010Prop30
280
     1
102
RTVSPost2010PropOp30
 70
     1
102
RTVSPost2010Prop31
280
     0
102
RTVSPost2010PropOp31
 70
     1
102
RTVSPost2010Prop32
280
     0
102
RTVSPost2010PropOp32
 70
     1
102
RTVSPost2010Prop33
280
     0
102
RTVSPost2010PropOp33
 70
     1
102
RTVSPost2010Prop34
280
     0
102
RTVSPost2010PropOp34
 70
     1
102
RTVSPost2010Prop35
280
     0
102
RTVSPost2010PropOp35
 70
     1
102
RTVSPost2010Prop36
280
     0
102
RTVSPost2010PropOp36
 70
     1
102
RTVSPost2010Prop37
 90
       50
102
RTVSPost2010PropOp37
 70
     1
102
RTVSPost2010Prop38
140
0.0
102
RTVSPost2010PropOp38
 70
     1
102
RTVSPost2010Prop39
140
1.0
102
RTVSPost2010PropOp39
 70
     1
102
RTVSPost2010Prop40
 90
        0
102
RTVSPost2010PropOp40
 70
     1
102
RTVSPost2010Prop41ColorIndex
 90
       18
102
RTVSPost2010Prop41ColorRGB
 90
        0
102
RTVSPost2010PropOp41
 70
     1
102
RTVSPost2010Prop42
 90
       50
102
RTVSPost2010PropOp42
 70
     1
102
RTVSPost2010Prop43
 90
        3
102
RTVSPost2010PropOp43
 70
     1
102
RTVSPost2010Prop44ColorIndex
 90
        5
102
RTVSPost2010Prop44ColorRGB
 90
      255
102
RTVSPost2010PropOp44
 70
     1
102
RTVSPost2010Prop45
280
     0
102
RTVSPost2010PropOp45
 70
     1
102
RTVSPost2010Prop46
 90
       50
102
RTVSPost2010PropOp46
 70
     1
102
RTVSPost2010Prop47
 90
       50
102
RTVSPost2010PropOp47
 70
     1
102
RTVSPost2010Prop48
 90
       50
102
RTVSPost2010PropOp48
 70
     1
102
RTVSPost2010Prop49
280
     0
102
RTVSPost2010PropOp49
 70
     1
102
RTVSPost2010Prop50
 90
       50
102
RTVSPost2010PropOp50
 70
     1
102
RTVSPost2010Prop51ColorIndex
 90
      256
102
RTVSPost2010Prop51ColorRGB
 90
-16777216
102
RTVSPost2010PropOp51
 70
     0
102
RTVSPost2010Prop52
140
1.0
102
RTVSPost2010PropOp52
 70
     0
102
RTVSPost2010Prop53
 90
        2
102
RTVSPost2010PropOp53
 70
     1
102
RTVSPost2010Prop54
  1
strokes_ogs.tif
102
RTVSPost2010PropOp54
 70
     1
102
RTVSPost2010Prop55
280
     0
102
RTVSPost2010PropOp55
 70
     1
102
RTVSPost2010Prop56
140
1.0
102
RTVSPost2010PropOp56
 70
     1
102
RTVSPost2010Prop57
140
1.0
102
RTVSPost2010PropOp57
 70
     1
102
RTVSPropertyOp0
 70
     1
102
RTVSPropertyOp1
 70
     1
102
RTVSPropertyOp2
 70
     1
102
RTVSPropertyOp3
 70
     1
102
RTVSPropertyOp4
 70
     1
102
RTVSPropertyOp5
 70
     1
102
RTVSPropertyOp6
 70
     1
102
RTVSPropertyOp7
 70
     1
102
RTVSPropertyOp8
 70
     1
102
RTVSPropertyOp9
 70
     1
102
RTVSPropertyOp10
 70
     1
102
RTVSPropertyOp11
 70
     1
102
RTVSPropertyOp12
 70
     1
102
RTVSPropertyOp13
 70
     1
102
RTVSPropertyOp14
 70
     1
102
RTVSPropertyOp15
 70
     1
102
RTVSPropertyOp16
 70
     1
102
RTVSPropertyOp17
 70
     1
102
RTVSPropertyOp18
 70
     1
102
RTVSPropertyOp19
 70
     1
102
RTVSPropertyOp20
 70
     1
102
RTVSPropertyOp21
 70
     1
102
RTVSPropertyOp22
 70
     1
102
RTVSPropertyOp23
 70
     1
102
RTVSPropertyOp24
 70
     1
102
RTVSPropertyOp25
 70
     1
102
RTVSPropertyOp26
 70
     1
102
RTVSPropertyOp27
 70
     1
102
RTVSPropertyOp28
 70
     1
102
RTVSPropertyOp29
 70
     1
102
RTVSPropertyOp30
 70
     1
102
RTVSPropertyOp31
 70
     1
102
RTVSPropertyOp32
 70
     1
102
RTVSPropertyOp33
 70
     1
102
RTVSPropertyOp34
 70
     1
102
RTVSPropertyOp35
 70
     1
102
RTVSPropertyOp36
 70
     1
102
RTVSPropertyOp37
 70
     1
102
RTVSPropertyOp38
 70
     1
102
RTVSPropertyOp39
 70
     1
102
RTVSPropertyOp40
 70
     1
102
RTVSPropertyOp41
 70
     1
102
RTVSPropertyOp42
 70
     1
102
RTVSPropertyOp43
 70
     1
102
RTVSPropertyOp44
 70
     1
102
RTVSPropertyOp45
 70
     1
102
RTVSPropertyOp46
 70
     1
102
RTVSPropertyOp47
 70
     1
102
RTVSPropertyOp48
 70
     1
102
RTVSPropertyOp49
 70
     1
102
RTVSPropertyOp50
 70
     1
102
RTVSPropertyOp51
 70
     0
102
RTVSPropertyOp52
 70
     0
102
RTVSPropertyOp53
 70
     1
102
RTVSPropertyOp54
 70
     1
102
RTVSPropertyOp55
 70
     1
102
RTVSPropertyOp56
 70
     1
102
RTVSPropertyOp57
 70
     1
102
RTVSPropertyOp58
 70
     1
102
RTVSPropertyOp59
 70
     1
102
RTVSPropertyOp60
 70
     1
102
RTVSPropertyOp61
 70
     1
102
RTVSPropertyOp62
 70
     1
  0
XRECORD
  5
3C6
102
{ACAD_REACTORS
330
3C5
102
}
330
3C5
100
AcDbXrecord
280
     1
102
RTVSPost2010Prop28
280
     0
102
RTVSPost2010PropOp28
 70
     1
102
RTVSPost2010Prop29
280
     1
102
RTVSPost2010PropOp29
 70
     1
102
RTVSPost2010Prop30
280
     1
102
RTVSPost2010PropOp30
 70
     1
102
RTVSPost2010Prop31
280
     0
102
RTVSPost2010PropOp31
 70
     1
102
RTVSPost2010Prop32
280
     0
102
RTVSPost2010PropOp32
 70
     1
102
RTVSPost2010Prop33
280
     0
102
RTVSPost2010PropOp33
 70
     1
102
RTVSPost2010Prop34
280
     0
102
RTVSPost2010PropOp34
 70
     1
102
RTVSPost2010Prop35
280
     0
102
RTVSPost2010PropOp35
 70
     1
102
RTVSPost2010Prop36
280
     0
102
RTVSPost2010PropOp36
 70
     1
102
RTVSPost2010Prop37
 90
       50
102
RTVSPost2010PropOp37
 70
     1
102
RTVSPost2010Prop38
140
0.0
102
RTVSPost2010PropOp38
 70
     1
102
RTVSPost2010Prop39
140
1.0
102
RTVSPost2010PropOp39
 70
     1
102
RTVSPost2010Prop40
 90
        0
102
RTVSPost2010PropOp40
 70
     1
102
RTVSPost2010Prop41ColorIndex
 90
       18
102
RTVSPost2010Prop41ColorRGB
 90
        0
102
RTVSPost2010PropOp41
 70
     1
102
RTVSPost2010Prop42
 90
       50
102
RTVSPost2010PropOp42
 70
     1
102
RTVSPost2010Prop43
 90
        3
102
RTVSPost2010PropOp43
 70
     1
102
RTVSPost2010Prop44ColorIndex
 90
        5
102
RTVSPost2010Prop44ColorRGB
 90
      255
102
RTVSPost2010PropOp44
 70
     1
102
RTVSPost2010Prop45
280
     0
102
RTVSPost2010PropOp45
 70
     1
102
RTVSPost2010Prop46
 90
       50
102
RTVSPost2010PropOp46
 70
     1
102
RTVSPost2010Prop47
 90
       50
102
RTVSPost2010PropOp47
 70
     1
102
RTVSPost2010Prop48
 90
       50
102
RTVSPost2010PropOp48
 70
     1
102
RTVSPost2010Prop49
280
     0
102
RTVSPost2010PropOp49
 70
     1
102
RTVSPost2010Prop50
 90
       50
102
RTVSPost2010PropOp50
 70
     1
102
RTVSPost2010Prop51ColorIndex
 90
      256
102
RTVSPost2010Prop51ColorRGB
 90
-16777216
102
RTVSPost2010PropOp51
 70
     0
102
RTVSPost2010Prop52
140
1.0
102
RTVSPost2010PropOp52
 70
     0
102
RTVSPost2010Prop53
 90
        2
102
RTVSPost2010PropOp53
 70
     1
102
RTVSPost2010Prop54
  1
strokes_ogs.tif
102
RTVSPost2010PropOp54
 70
     1
102
RTVSPost2010Prop55
280
     0
102
RTVSPost2010PropOp55
 70
     1
102
RTVSPost2010Prop56
140
1.0
102
RTVSPost2010PropOp56
 70
     1
102
RTVSPost2010Prop57
140
1.0
102
RTVSPost2010PropOp57
 70
     1
102
RTVSPropertyOp0
 70
     1
102
RTVSPropertyOp1
 70
     1
102
RTVSPropertyOp2
 70
     1
102
RTVSPropertyOp3
 70
     1
102
RTVSPropertyOp4
 70
     1
102
RTVSPropertyOp5
 70
     1
102
RTVSPropertyOp6
 70
     1
102
RTVSPropertyOp7
 70
     1
102
RTVSPropertyOp8
 70
     1
102
RTVSPropertyOp9
 70
     1
102
RTVSPropertyOp10
 70
     1
102
RTVSPropertyOp11
 70
     1
102
RTVSPropertyOp12
 70
     1
102
RTVSPropertyOp13
 70
     1
102
RTVSPropertyOp14
 70
     1
102
RTVSPropertyOp15
 70
     1
102
RTVSPropertyOp16
 70
     1
102
RTVSPropertyOp17
 70
     1
102
RTVSPropertyOp18
 70
     1
102
RTVSPropertyOp19
 70
     1
102
RTVSPropertyOp20
 70
     1
102
RTVSPropertyOp21
 70
     1
102
RTVSPropertyOp22
 70
     1
102
RTVSPropertyOp23
 70
     1
102
RTVSPropertyOp24
 70
     1
102
RTVSPropertyOp25
 70
     1
102
RTVSPropertyOp26
 70
     1
102
RTVSPropertyOp27
 70
     1
102
RTVSPropertyOp28
 70
     1
102
RTVSPropertyOp29
 70
     1
102
RTVSPropertyOp30
 70
     1
102
RTVSPropertyOp31
 70
     1
102
RTVSPropertyOp32
 70
     1
102
RTVSPropertyOp33
 70
     1
102
RTVSPropertyOp34
 70
     1
102
RTVSPropertyOp35
 70
     1
102
RTVSPropertyOp36
 70
     1
102
RTVSPropertyOp37
 70
     1
102
RTVSPropertyOp38
 70
     1
102
RTVSPropertyOp39
 70
     1
102
RTVSPropertyOp40
 70
     1
102
RTVSPropertyOp41
 70
     1
102
RTVSPropertyOp42
 70
     1
102
RTVSPropertyOp43
 70
     1
102
RTVSPropertyOp44
 70
     1
102
RTVSPropertyOp45
 70
     1
102
RTVSPropertyOp46
 70
     1
102
RTVSPropertyOp47
 70
     1
102
RTVSPropertyOp48
 70
     1
102
RTVSPropertyOp49
 70
     1
102
RTVSPropertyOp50
 70
     1
102
RTVSPropertyOp51
 70
     0
102
RTVSPropertyOp52
 70
     0
102
RTVSPropertyOp53
 70
     1
102
RTVSPropertyOp54
 70
     1
102
RTVSPropertyOp55
 70
     1
102
RTVSPropertyOp56
 70
     1
102
RTVSPropertyOp57
 70
     1
102
RTVSPropertyOp58
 70
     1
102
RTVSPropertyOp59
 70
     1
102
RTVSPropertyOp60
 70
     1
102
RTVSPropertyOp61
 70
     1
102
RTVSPropertyOp62
 70
     1
  0
XRECORD
  5
3C8
102
{ACAD_REACTORS
330
3C7
102
}
330
3C7
100
AcDbXrecord
280
     1
102
RTVSPost2010Prop28
280
     0
102
RTVSPost2010PropOp28
 70
     1
102
RTVSPost2010Prop29
280
     1
102
RTVSPost2010PropOp29
 70
     1
102
RTVSPost2010Prop30
280
     1
102
RTVSPost2010PropOp30
 70
     1
102
RTVSPost2010Prop31
280
     0
102
RTVSPost2010PropOp31
 70
     1
102
RTVSPost2010Prop32
280
     0
102
RTVSPost2010PropOp32
 70
     1
102
RTVSPost2010Prop33
280
     0
102
RTVSPost2010PropOp33
 70
     1
102
RTVSPost2010Prop34
280
     0
102
RTVSPost2010PropOp34
 70
     1
102
RTVSPost2010Prop35
280
     0
102
RTVSPost2010PropOp35
 70
     1
102
RTVSPost2010Prop36
280
     0
102
RTVSPost2010PropOp36
 70
     1
102
RTVSPost2010Prop37
 90
       50
102
RTVSPost2010PropOp37
 70
     1
102
RTVSPost2010Prop38
140
0.0
102
RTVSPost2010PropOp38
 70
     1
102
RTVSPost2010Prop39
140
1.0
102
RTVSPost2010PropOp39
 70
     1
102
RTVSPost2010Prop40
 90
        0
102
RTVSPost2010PropOp40
 70
     1
102
RTVSPost2010Prop41ColorIndex
 90
       18
102
RTVSPost2010Prop41ColorRGB
 90
        0
102
RTVSPost2010PropOp41
 70
     1
102
RTVSPost2010Prop42
 90
       50
102
RTVSPost2010PropOp42
 70
     1
102
RTVSPost2010Prop43
 90
        3
102
RTVSPost2010PropOp43
 70
     1
102
RTVSPost2010Prop44ColorIndex
 90
        5
102
RTVSPost2010Prop44ColorRGB
 90
      255
102
RTVSPost2010PropOp44
 70
     1
102
RTVSPost2010Prop45
280
     0
102
RTVSPost2010PropOp45
 70
     1
102
RTVSPost2010Prop46
 90
       50
102
RTVSPost2010PropOp46
 70
     1
102
RTVSPost2010Prop47
 90
       50
102
RTVSPost2010PropOp47
 70
     1
102
RTVSPost2010Prop48
 90
       50
102
RTVSPost2010PropOp48
 70
     1
102
RTVSPost2010Prop49
280
     0
102
RTVSPost2010PropOp49
 70
     1
102
RTVSPost2010Prop50
 90
       50
102
RTVSPost2010PropOp50
 70
     1
102
RTVSPost2010Prop51ColorIndex
 90
      256
102
RTVSPost2010Prop51ColorRGB
 90
-16777216
102
RTVSPost2010PropOp51
 70
     0
102
RTVSPost2010Prop52
140
1.0
102
RTVSPost2010PropOp52
 70
     0
102
RTVSPost2010Prop53
 90
        2
102
RTVSPost2010PropOp53
 70
     1
102
RTVSPost2010Prop54
  1
strokes_ogs.tif
102
RTVSPost2010PropOp54
 70
     1
102
RTVSPost2010Prop55
280
     0
102
RTVSPost2010PropOp55
 70
     1
102
RTVSPost2010Prop56
140
1.0
102
RTVSPost2010PropOp56
 70
     1
102
RTVSPost2010Prop57
140
1.0
102
RTVSPost2010PropOp57
 70
     1
102
RTVSPropertyOp0
 70
     1
102
RTVSPropertyOp1
 70
     1
102
RTVSPropertyOp2
 70
     1
102
RTVSPropertyOp3
 70
     1
102
RTVSPropertyOp4
 70
     1
102
RTVSPropertyOp5
 70
     1
102
RTVSPropertyOp6
 70
     1
102
RTVSPropertyOp7
 70
     1
102
RTVSPropertyOp8
 70
     1
102
RTVSPropertyOp9
 70
     1
102
RTVSPropertyOp10
 70
     1
102
RTVSPropertyOp11
 70
     1
102
RTVSPropertyOp12
 70
     1
102
RTVSPropertyOp13
 70
     1
102
RTVSPropertyOp14
 70
     1
102
RTVSPropertyOp15
 70
     1
102
RTVSPropertyOp16
 70
     1
102
RTVSPropertyOp17
 70
     1
102
RTVSPropertyOp18
 70
     1
102
RTVSPropertyOp19
 70
     1
102
RTVSPropertyOp20
 70
     1
102
RTVSPropertyOp21
 70
     1
102
RTVSPropertyOp22
 70
     1
102
RTVSPropertyOp23
 70
     1
102
RTVSPropertyOp24
 70
     1
102
RTVSPropertyOp25
 70
     1
102
RTVSPropertyOp26
 70
     1
102
RTVSPropertyOp27
 70
     1
102
RTVSPropertyOp28
 70
     1
102
RTVSPropertyOp29
 70
     1
102
RTVSPropertyOp30
 70
     1
102
RTVSPropertyOp31
 70
     1
102
RTVSPropertyOp32
 70
     1
102
RTVSPropertyOp33
 70
     1
102
RTVSPropertyOp34
 70
     1
102
RTVSPropertyOp35
 70
     1
102
RTVSPropertyOp36
 70
     1
102
RTVSPropertyOp37
 70
     1
102
RTVSPropertyOp38
 70
     1
102
RTVSPropertyOp39
 70
     1
102
RTVSPropertyOp40
 70
     1
102
RTVSPropertyOp41
 70
     1
102
RTVSPropertyOp42
 70
     1
102
RTVSPropertyOp43
 70
     1
102
RTVSPropertyOp44
 70
     1
102
RTVSPropertyOp45
 70
     1
102
RTVSPropertyOp46
 70
     1
102
RTVSPropertyOp47
 70
     1
102
RTVSPropertyOp48
 70
     1
102
RTVSPropertyOp49
 70
     1
102
RTVSPropertyOp50
 70
     1
102
RTVSPropertyOp51
 70
     0
102
RTVSPropertyOp52
 70
     0
102
RTVSPropertyOp53
 70
     1
102
RTVSPropertyOp54
 70
     1
102
RTVSPropertyOp55
 70
     1
102
RTVSPropertyOp56
 70
     1
102
RTVSPropertyOp57
 70
     1
102
RTVSPropertyOp58
 70
     1
102
RTVSPropertyOp59
 70
     1
102
RTVSPropertyOp60
 70
     1
102
RTVSPropertyOp61
 70
     1
102
RTVSPropertyOp62
 70
     1
  0
XRECORD
  5
3CA
102
{ACAD_REACTORS
330
3C9
102
}
330
3C9
100
AcDbXrecord
280
     1
102
RTVSPost2010Prop28
280
     0
102
RTVSPost2010PropOp28
 70
     1
102
RTVSPost2010Prop29
280
     1
102
RTVSPost2010PropOp29
 70
     1
102
RTVSPost2010Prop30
280
     1
102
RTVSPost2010PropOp30
 70
     1
102
RTVSPost2010Prop31
280
     0
102
RTVSPost2010PropOp31
 70
     1
102
RTVSPost2010Prop32
280
     0
102
RTVSPost2010PropOp32
 70
     1
102
RTVSPost2010Prop33
280
     0
102
RTVSPost2010PropOp33
 70
     1
102
RTVSPost2010Prop34
280
     0
102
RTVSPost2010PropOp34
 70
     1
102
RTVSPost2010Prop35
280
     0
102
RTVSPost2010PropOp35
 70
     1
102
RTVSPost2010Prop36
280
     0
102
RTVSPost2010PropOp36
 70
     1
102
RTVSPost2010Prop37
 90
       50
102
RTVSPost2010PropOp37
 70
     1
102
RTVSPost2010Prop38
140
0.0
102
RTVSPost2010PropOp38
 70
     1
102
RTVSPost2010Prop39
140
1.0
102
RTVSPost2010PropOp39
 70
     1
102
RTVSPost2010Prop40
 90
        0
102
RTVSPost2010PropOp40
 70
     1
102
RTVSPost2010Prop41ColorIndex
 90
       18
102
RTVSPost2010Prop41ColorRGB
 90
        0
102
RTVSPost2010PropOp41
 70
     1
102
RTVSPost2010Prop42
 90
       50
102
RTVSPost2010PropOp42
 70
     1
102
RTVSPost2010Prop43
 90
        3
102
RTVSPost2010PropOp43
 70
     1
102
RTVSPost2010Prop44ColorIndex
 90
        5
102
RTVSPost2010Prop44ColorRGB
 90
      255
102
RTVSPost2010PropOp44
 70
     1
102
RTVSPost2010Prop45
280
     0
102
RTVSPost2010PropOp45
 70
     1
102
RTVSPost2010Prop46
 90
       50
102
RTVSPost2010PropOp46
 70
     1
102
RTVSPost2010Prop47
 90
       50
102
RTVSPost2010PropOp47
 70
     1
102
RTVSPost2010Prop48
 90
       50
102
RTVSPost2010PropOp48
 70
     1
102
RTVSPost2010Prop49
280
     0
102
RTVSPost2010PropOp49
 70
     1
102
RTVSPost2010Prop50
 90
       50
102
RTVSPost2010PropOp50
 70
     1
102
RTVSPost2010Prop51ColorIndex
 90
      256
102
RTVSPost2010Prop51ColorRGB
 90
-16777216
102
RTVSPost2010PropOp51
 70
     0
102
RTVSPost2010Prop52
140
1.0
102
RTVSPost2010PropOp52
 70
     0
102
RTVSPost2010Prop53
 90
        2
102
RTVSPost2010PropOp53
 70
     1
102
RTVSPost2010Prop54
  1
strokes_ogs.tif
102
RTVSPost2010PropOp54
 70
     1
102
RTVSPost2010Prop55
280
     0
102
RTVSPost2010PropOp55
 70
     1
102
RTVSPost2010Prop56
140
1.0
102
RTVSPost2010PropOp56
 70
     1
102
RTVSPost2010Prop57
140
1.0
102
RTVSPost2010PropOp57
 70
     1
102
RTVSPropertyOp0
 70
     1
102
RTVSPropertyOp1
 70
     1
102
RTVSPropertyOp2
 70
     1
102
RTVSPropertyOp3
 70
     1
102
RTVSPropertyOp4
 70
     1
102
RTVSPropertyOp5
 70
     1
102
RTVSPropertyOp6
 70
     1
102
RTVSPropertyOp7
 70
     1
102
RTVSPropertyOp8
 70
     1
102
RTVSPropertyOp9
 70
     1
102
RTVSPropertyOp10
 70
     1
102
RTVSPropertyOp11
 70
     1
102
RTVSPropertyOp12
 70
     1
102
RTVSPropertyOp13
 70
     1
102
RTVSPropertyOp14
 70
     1
102
RTVSPropertyOp15
 70
     1
102
RTVSPropertyOp16
 70
     1
102
RTVSPropertyOp17
 70
     1
102
RTVSPropertyOp18
 70
     1
102
RTVSPropertyOp19
 70
     1
102
RTVSPropertyOp20
 70
     1
102
RTVSPropertyOp21
 70
     1
102
RTVSPropertyOp22
 70
     1
102
RTVSPropertyOp23
 70
     1
102
RTVSPropertyOp24
 70
     1
102
RTVSPropertyOp25
 70
     1
102
RTVSPropertyOp26
 70
     1
102
RTVSPropertyOp27
 70
     1
102
RTVSPropertyOp28
 70
     1
102
RTVSPropertyOp29
 70
     1
102
RTVSPropertyOp30
 70
     1
102
RTVSPropertyOp31
 70
     1
102
RTVSPropertyOp32
 70
     1
102
RTVSPropertyOp33
 70
     1
102
RTVSPropertyOp34
 70
     1
102
RTVSPropertyOp35
 70
     1
102
RTVSPropertyOp36
 70
     1
102
RTVSPropertyOp37
 70
     1
102
RTVSPropertyOp38
 70
     1
102
RTVSPropertyOp39
 70
     1
102
RTVSPropertyOp40
 70
     1
102
RTVSPropertyOp41
 70
     1
102
RTVSPropertyOp42
 70
     1
102
RTVSPropertyOp43
 70
     1
102
RTVSPropertyOp44
 70
     1
102
RTVSPropertyOp45
 70
     1
102
RTVSPropertyOp46
 70
     1
102
RTVSPropertyOp47
 70
     1
102
RTVSPropertyOp48
 70
     1
102
RTVSPropertyOp49
 70
     1
102
RTVSPropertyOp50
 70
     1
102
RTVSPropertyOp51
 70
     0
102
RTVSPropertyOp52
 70
     0
102
RTVSPropertyOp53
 70
     1
102
RTVSPropertyOp54
 70
     1
102
RTVSPropertyOp55
 70
     1
102
RTVSPropertyOp56
 70
     1
102
RTVSPropertyOp57
 70
     1
102
RTVSPropertyOp58
 70
     1
102
RTVSPropertyOp59
 70
     1
102
RTVSPropertyOp60
 70
     1
102
RTVSPropertyOp61
 70
     1
102
RTVSPropertyOp62
 70
     1
  0
XRECORD
  5
3CC
102
{ACAD_REACTORS
330
3CB
102
}
330
3CB
100
AcDbXrecord
280
     1
102
RTVSPost2010Prop28
280
     0
102
RTVSPost2010PropOp28
 70
     1
102
RTVSPost2010Prop29
280
     1
102
RTVSPost2010PropOp29
 70
     1
102
RTVSPost2010Prop30
280
     1
102
RTVSPost2010PropOp30
 70
     1
102
RTVSPost2010Prop31
280
     0
102
RTVSPost2010PropOp31
 70
     1
102
RTVSPost2010Prop32
280
     0
102
RTVSPost2010PropOp32
 70
     1
102
RTVSPost2010Prop33
280
     0
102
RTVSPost2010PropOp33
 70
     1
102
RTVSPost2010Prop34
280
     0
102
RTVSPost2010PropOp34
 70
     1
102
RTVSPost2010Prop35
280
     0
102
RTVSPost2010PropOp35
 70
     1
102
RTVSPost2010Prop36
280
     0
102
RTVSPost2010PropOp36
 70
     1
102
RTVSPost2010Prop37
 90
       50
102
RTVSPost2010PropOp37
 70
     1
102
RTVSPost2010Prop38
140
0.0
102
RTVSPost2010PropOp38
 70
     1
102
RTVSPost2010Prop39
140
1.0
102
RTVSPost2010PropOp39
 70
     1
102
RTVSPost2010Prop40
 90
        0
102
RTVSPost2010PropOp40
 70
     1
102
RTVSPost2010Prop41ColorIndex
 90
       18
102
RTVSPost2010Prop41ColorRGB
 90
        0
102
RTVSPost2010PropOp41
 70
     1
102
RTVSPost2010Prop42
 90
       50
102
RTVSPost2010PropOp42
 70
     1
102
RTVSPost2010Prop43
 90
        3
102
RTVSPost2010PropOp43
 70
     1
102
RTVSPost2010Prop44ColorIndex
 90
        5
102
RTVSPost2010Prop44ColorRGB
 90
      255
102
RTVSPost2010PropOp44
 70
     1
102
RTVSPost2010Prop45
280
     0
102
RTVSPost2010PropOp45
 70
     1
102
RTVSPost2010Prop46
 90
       50
102
RTVSPost2010PropOp46
 70
     1
102
RTVSPost2010Prop47
 90
       50
102
RTVSPost2010PropOp47
 70
     1
102
RTVSPost2010Prop48
 90
       50
102
RTVSPost2010PropOp48
 70
     1
102
RTVSPost2010Prop49
280
     0
102
RTVSPost2010PropOp49
 70
     1
102
RTVSPost2010Prop50
 90
       50
102
RTVSPost2010PropOp50
 70
     1
102
RTVSPost2010Prop51ColorIndex
 90
      256
102
RTVSPost2010Prop51ColorRGB
 90
-16777216
102
RTVSPost2010PropOp51
 70
     0
102
RTVSPost2010Prop52
140
1.0
102
RTVSPost2010PropOp52
 70
     0
102
RTVSPost2010Prop53
 90
        2
102
RTVSPost2010PropOp53
 70
     1
102
RTVSPost2010Prop54
  1
strokes_ogs.tif
102
RTVSPost2010PropOp54
 70
     1
102
RTVSPost2010Prop55
280
     0
102
RTVSPost2010PropOp55
 70
     1
102
RTVSPost2010Prop56
140
1.0
102
RTVSPost2010PropOp56
 70
     1
102
RTVSPost2010Prop57
140
1.0
102
RTVSPost2010PropOp57
 70
     1
102
RTVSPropertyOp0
 70
     1
102
RTVSPropertyOp1
 70
     1
102
RTVSPropertyOp2
 70
     1
102
RTVSPropertyOp3
 70
     1
102
RTVSPropertyOp4
 70
     1
102
RTVSPropertyOp5
 70
     1
102
RTVSPropertyOp6
 70
     1
102
RTVSPropertyOp7
 70
     1
102
RTVSPropertyOp8
 70
     1
102
RTVSPropertyOp9
 70
     1
102
RTVSPropertyOp10
 70
     1
102
RTVSPropertyOp11
 70
     1
102
RTVSPropertyOp12
 70
     1
102
RTVSPropertyOp13
 70
     1
102
RTVSPropertyOp14
 70
     1
102
RTVSPropertyOp15
 70
     1
102
RTVSPropertyOp16
 70
     1
102
RTVSPropertyOp17
 70
     1
102
RTVSPropertyOp18
 70
     1
102
RTVSPropertyOp19
 70
     1
102
RTVSPropertyOp20
 70
     1
102
RTVSPropertyOp21
 70
     1
102
RTVSPropertyOp22
 70
     1
102
RTVSPropertyOp23
 70
     1
102
RTVSPropertyOp24
 70
     1
102
RTVSPropertyOp25
 70
     1
102
RTVSPropertyOp26
 70
     1
102
RTVSPropertyOp27
 70
     1
102
RTVSPropertyOp28
 70
     1
102
RTVSPropertyOp29
 70
     1
102
RTVSPropertyOp30
 70
     1
102
RTVSPropertyOp31
 70
     1
102
RTVSPropertyOp32
 70
     1
102
RTVSPropertyOp33
 70
     1
102
RTVSPropertyOp34
 70
     1
102
RTVSPropertyOp35
 70
     1
102
RTVSPropertyOp36
 70
     1
102
RTVSPropertyOp37
 70
     1
102
RTVSPropertyOp38
 70
     1
102
RTVSPropertyOp39
 70
     1
102
RTVSPropertyOp40
 70
     1
102
RTVSPropertyOp41
 70
     1
102
RTVSPropertyOp42
 70
     1
102
RTVSPropertyOp43
 70
     1
102
RTVSPropertyOp44
 70
     1
102
RTVSPropertyOp45
 70
     1
102
RTVSPropertyOp46
 70
     1
102
RTVSPropertyOp47
 70
     1
102
RTVSPropertyOp48
 70
     1
102
RTVSPropertyOp49
 70
     1
102
RTVSPropertyOp50
 70
     1
102
RTVSPropertyOp51
 70
     0
102
RTVSPropertyOp52
 70
     0
102
RTVSPropertyOp53
 70
     1
102
RTVSPropertyOp54
 70
     1
102
RTVSPropertyOp55
 70
     1
102
RTVSPropertyOp56
 70
     1
102
RTVSPropertyOp57
 70
     1
102
RTVSPropertyOp58
 70
     1
102
RTVSPropertyOp59
 70
     1
102
RTVSPropertyOp60
 70
     1
102
RTVSPropertyOp61
 70
     1
102
RTVSPropertyOp62
 70
     1
  0
XRECORD
  5
3D4
102
{ACAD_REACTORS
330
3D3
102
}
330
3D3
100
AcDbXrecord
280
     1
102
RTVSPost2010Prop28
280
     0
102
RTVSPost2010PropOp28
 70
     1
102
RTVSPost2010Prop29
280
     1
102
RTVSPost2010PropOp29
 70
     1
102
RTVSPost2010Prop30
280
     1
102
RTVSPost2010PropOp30
 70
     1
102
RTVSPost2010Prop31
280
     0
102
RTVSPost2010PropOp31
 70
     1
102
RTVSPost2010Prop32
280
     0
102
RTVSPost2010PropOp32
 70
     1
102
RTVSPost2010Prop33
280
     0
102
RTVSPost2010PropOp33
 70
     1
102
RTVSPost2010Prop34
280
     0
102
RTVSPost2010PropOp34
 70
     1
102
RTVSPost2010Prop35
280
     0
102
RTVSPost2010PropOp35
 70
     1
102
RTVSPost2010Prop36
280
     0
102
RTVSPost2010PropOp36
 70
     1
102
RTVSPost2010Prop37
 90
       50
102
RTVSPost2010PropOp37
 70
     1
102
RTVSPost2010Prop38
140
0.0
102
RTVSPost2010PropOp38
 70
     1
102
RTVSPost2010Prop39
140
1.0
102
RTVSPost2010PropOp39
 70
     1
102
RTVSPost2010Prop40
 90
        0
102
RTVSPost2010PropOp40
 70
     1
102
RTVSPost2010Prop41ColorIndex
 90
       18
102
RTVSPost2010Prop41ColorRGB
 90
        0
102
RTVSPost2010PropOp41
 70
     1
102
RTVSPost2010Prop42
 90
       50
102
RTVSPost2010PropOp42
 70
     1
102
RTVSPost2010Prop43
 90
        3
102
RTVSPost2010PropOp43
 70
     1
102
RTVSPost2010Prop44ColorIndex
 90
        5
102
RTVSPost2010Prop44ColorRGB
 90
      255
102
RTVSPost2010PropOp44
 70
     1
102
RTVSPost2010Prop45
280
     0
102
RTVSPost2010PropOp45
 70
     1
102
RTVSPost2010Prop46
 90
       50
102
RTVSPost2010PropOp46
 70
     1
102
RTVSPost2010Prop47
 90
       50
102
RTVSPost2010PropOp47
 70
     1
102
RTVSPost2010Prop48
 90
       50
102
RTVSPost2010PropOp48
 70
     1
102
RTVSPost2010Prop49
280
     0
102
RTVSPost2010PropOp49
 70
     1
102
RTVSPost2010Prop50
 90
       50
102
RTVSPost2010PropOp50
 70
     1
102
RTVSPost2010Prop51ColorIndex
 90
      256
102
RTVSPost2010Prop51ColorRGB
 90
-16777216
102
RTVSPost2010PropOp51
 70
     0
102
RTVSPost2010Prop52
140
1.0
102
RTVSPost2010PropOp52
 70
     0
102
RTVSPost2010Prop53
 90
        2
102
RTVSPost2010PropOp53
 70
     1
102
RTVSPost2010Prop54
  1
strokes_ogs.tif
102
RTVSPost2010PropOp54
 70
     1
102
RTVSPost2010Prop55
280
     0
102
RTVSPost2010PropOp55
 70
     1
102
RTVSPost2010Prop56
140
1.0
102
RTVSPost2010PropOp56
 70
     1
102
RTVSPost2010Prop57
140
1.0
102
RTVSPost2010PropOp57
 70
     1
102
RTVSPropertyOp0
 70
     1
102
RTVSPropertyOp1
 70
     1
102
RTVSPropertyOp2
 70
     1
102
RTVSPropertyOp3
 70
     1
102
RTVSPropertyOp4
 70
     1
102
RTVSPropertyOp5
 70
     1
102
RTVSPropertyOp6
 70
     1
102
RTVSPropertyOp7
 70
     1
102
RTVSPropertyOp8
 70
     1
102
RTVSPropertyOp9
 70
     1
102
RTVSPropertyOp10
 70
     1
102
RTVSPropertyOp11
 70
     1
102
RTVSPropertyOp12
 70
     1
102
RTVSPropertyOp13
 70
     1
102
RTVSPropertyOp14
 70
     1
102
RTVSPropertyOp15
 70
     1
102
RTVSPropertyOp16
 70
     1
102
RTVSPropertyOp17
 70
     1
102
RTVSPropertyOp18
 70
     1
102
RTVSPropertyOp19
 70
     1
102
RTVSPropertyOp20
 70
     1
102
RTVSPropertyOp21
 70
     1
102
RTVSPropertyOp22
 70
     1
102
RTVSPropertyOp23
 70
     1
102
RTVSPropertyOp24
 70
     1
102
RTVSPropertyOp25
 70
     1
102
RTVSPropertyOp26
 70
     1
102
RTVSPropertyOp27
 70
     1
102
RTVSPropertyOp28
 70
     1
102
RTVSPropertyOp29
 70
     1
102
RTVSPropertyOp30
 70
     1
102
RTVSPropertyOp31
 70
     1
102
RTVSPropertyOp32
 70
     1
102
RTVSPropertyOp33
 70
     1
102
RTVSPropertyOp34
 70
     1
102
RTVSPropertyOp35
 70
     1
102
RTVSPropertyOp36
 70
     1
102
RTVSPropertyOp37
 70
     1
102
RTVSPropertyOp38
 70
     1
102
RTVSPropertyOp39
 70
     1
102
RTVSPropertyOp40
 70
     1
102
RTVSPropertyOp41
 70
     1
102
RTVSPropertyOp42
 70
     1
102
RTVSPropertyOp43
 70
     1
102
RTVSPropertyOp44
 70
     1
102
RTVSPropertyOp45
 70
     1
102
RTVSPropertyOp46
 70
     1
102
RTVSPropertyOp47
 70
     1
102
RTVSPropertyOp48
 70
     1
102
RTVSPropertyOp49
 70
     1
102
RTVSPropertyOp50
 70
     1
102
RTVSPropertyOp51
 70
     0
102
RTVSPropertyOp52
 70
     0
102
RTVSPropertyOp53
 70
     1
102
RTVSPropertyOp54
 70
     1
102
RTVSPropertyOp55
 70
     1
102
RTVSPropertyOp56
 70
     1
102
RTVSPropertyOp57
 70
     1
102
RTVSPropertyOp58
 70
     1
102
RTVSPropertyOp59
 70
     1
102
RTVSPropertyOp60
 70
     1
102
RTVSPropertyOp61
 70
     1
102
RTVSPropertyOp62
 70
     1
  0
XRECORD
  5
3F0
102
{ACAD_REACTORS
330
3EF
102
}
330
3EF
100
AcDbXrecord
280
     1
102
RTVSPost2010Prop28
280
     0
102
RTVSPost2010PropOp28
 70
     0
102
RTVSPost2010Prop29
280
     1
102
RTVSPost2010PropOp29
 70
     0
102
RTVSPost2010Prop30
280
     1
102
RTVSPost2010PropOp30
 70
     0
102
RTVSPost2010Prop31
280
     0
102
RTVSPost2010PropOp31
 70
     0
102
RTVSPost2010Prop32
280
     0
102
RTVSPost2010PropOp32
 70
     0
102
RTVSPost2010Prop33
280
     0
102
RTVSPost2010PropOp33
 70
     0
102
RTVSPost2010Prop34
280
     0
102
RTVSPost2010PropOp34
 70
     0
102
RTVSPost2010Prop35
280
     0
102
RTVSPost2010PropOp35
 70
     0
102
RTVSPost2010Prop36
280
     0
102
RTVSPost2010PropOp36
 70
     0
102
RTVSPost2010Prop37
 90
       50
102
RTVSPost2010PropOp37
 70
     0
102
RTVSPost2010Prop38
140
0.0
102
RTVSPost2010PropOp38
 70
     0
102
RTVSPost2010Prop39
140
1.0
102
RTVSPost2010PropOp39
 70
     0
102
RTVSPost2010Prop40
 90
        0
102
RTVSPost2010PropOp40
 70
     0
102
RTVSPost2010Prop41ColorIndex
 90
       18
102
RTVSPost2010Prop41ColorRGB
 90
        0
102
RTVSPost2010PropOp41
 70
     0
102
RTVSPost2010Prop42
 90
       50
102
RTVSPost2010PropOp42
 70
     0
102
RTVSPost2010Prop43
 90
        3
102
RTVSPost2010PropOp43
 70
     0
102
RTVSPost2010Prop44ColorIndex
 90
        5
102
RTVSPost2010Prop44ColorRGB
 90
      255
102
RTVSPost2010PropOp44
 70
     0
102
RTVSPost2010Prop45
280
     0
102
RTVSPost2010PropOp45
 70
     0
102
RTVSPost2010Prop46
 90
       50
102
RTVSPost2010PropOp46
 70
     0
102
RTVSPost2010Prop47
 90
       50
102
RTVSPost2010PropOp47
 70
     0
102
RTVSPost2010Prop48
 90
       50
102
RTVSPost2010PropOp48
 70
     0
102
RTVSPost2010Prop49
280
     0
102
RTVSPost2010PropOp49
 70
     0
102
RTVSPost2010Prop50
 90
       50
102
RTVSPost2010PropOp50
 70
     0
102
RTVSPost2010Prop51ColorIndex
 90
      256
102
RTVSPost2010Prop51ColorRGB
 90
-16777216
102
RTVSPost2010PropOp51
 70
     0
102
RTVSPost2010Prop52
140
1.0
102
RTVSPost2010PropOp52
 70
     0
102
RTVSPost2010Prop53
 90
        2
102
RTVSPost2010PropOp53
 70
     0
102
RTVSPost2010Prop54
  1
strokes_ogs.tif
102
RTVSPost2010PropOp54
 70
     0
102
RTVSPost2010Prop55
280
     0
102
RTVSPost2010PropOp55
 70
     0
102
RTVSPost2010Prop56
140
1.0
102
RTVSPost2010PropOp56
 70
     0
102
RTVSPost2010Prop57
140
1.0
102
RTVSPost2010PropOp57
 70
     0
102
RTVSPropertyOp0
 70
     0
102
RTVSPropertyOp1
 70
     0
102
RTVSPropertyOp2
 70
     0
102
RTVSPropertyOp3
 70
     0
102
RTVSPropertyOp4
 70
     0
102
RTVSPropertyOp5
 70
     0
102
RTVSPropertyOp6
 70
     0
102
RTVSPropertyOp7
 70
     0
102
RTVSPropertyOp8
 70
     0
102
RTVSPropertyOp9
 70
     0
102
RTVSPropertyOp10
 70
     0
102
RTVSPropertyOp11
 70
     0
102
RTVSPropertyOp12
 70
     0
102
RTVSPropertyOp13
 70
     0
102
RTVSPropertyOp14
 70
     2
102
RTVSPropertyOp15
 70
     0
102
RTVSPropertyOp16
 70
     0
102
RTVSPropertyOp17
 70
     0
102
RTVSPropertyOp18
 70
     0
102
RTVSPropertyOp19
 70
     0
102
RTVSPropertyOp20
 70
     0
102
RTVSPropertyOp21
 70
     0
102
RTVSPropertyOp22
 70
     0
102
RTVSPropertyOp23
 70
     0
102
RTVSPropertyOp24
 70
     0
102
RTVSPropertyOp25
 70
     0
102
RTVSPropertyOp26
 70
     0
102
RTVSPropertyOp27
 70
     0
102
RTVSPropertyOp28
 70
     0
102
RTVSPropertyOp29
 70
     0
102
RTVSPropertyOp30
 70
     0
102
RTVSPropertyOp31
 70
     0
102
RTVSPropertyOp32
 70
     0
102
RTVSPropertyOp33
 70
     0
102
RTVSPropertyOp34
 70
     0
102
RTVSPropertyOp35
 70
     0
102
RTVSPropertyOp36
 70
     0
102
RTVSPropertyOp37
 70
     0
102
RTVSPropertyOp38
 70
     0
102
RTVSPropertyOp39
 70
     0
102
RTVSPropertyOp40
 70
     0
102
RTVSPropertyOp41
 70
     0
102
RTVSPropertyOp42
 70
     0
102
RTVSPropertyOp43
 70
     0
102
RTVSPropertyOp44
 70
     0
102
RTVSPropertyOp45
 70
     0
102
RTVSPropertyOp46
 70
     0
102
RTVSPropertyOp47
 70
     0
102
RTVSPropertyOp48
 70
     0
102
RTVSPropertyOp49
 70
     0
102
RTVSPropertyOp50
 70
     0
102
RTVSPropertyOp51
 70
     0
102
RTVSPropertyOp52
 70
     0
102
RTVSPropertyOp53
 70
     0
102
RTVSPropertyOp54
 70
     0
102
RTVSPropertyOp55
 70
     0
102
RTVSPropertyOp56
 70
     0
102
RTVSPropertyOp57
 70
     0
102
RTVSPropertyOp58
 70
     0
102
RTVSPropertyOp59
 70
     0
102
RTVSPropertyOp60
 70
     0
102
RTVSPropertyOp61
 70
     0
102
RTVSPropertyOp62
 70
     0
  0
XRECORD
  5
3E0
102
{ACAD_REACTORS
330
3DF
102
}
330
3DF
100
AcDbXrecord
280
     1
102
RTVSPost2010Prop28
280
     0
102
RTVSPost2010PropOp28
 70
     1
102
RTVSPost2010Prop29
280
     1
102
RTVSPost2010PropOp29
 70
     1
102
RTVSPost2010Prop30
280
     1
102
RTVSPost2010PropOp30
 70
     1
102
RTVSPost2010Prop31
280
     0
102
RTVSPost2010PropOp31
 70
     1
102
RTVSPost2010Prop32
280
     0
102
RTVSPost2010PropOp32
 70
     1
102
RTVSPost2010Prop33
280
     0
102
RTVSPost2010PropOp33
 70
     1
102
RTVSPost2010Prop34
280
     0
102
RTVSPost2010PropOp34
 70
     1
102
RTVSPost2010Prop35
280
     0
102
RTVSPost2010PropOp35
 70
     1
102
RTVSPost2010Prop36
280
     0
102
RTVSPost2010PropOp36
 70
     1
102
RTVSPost2010Prop37
 90
       50
102
RTVSPost2010PropOp37
 70
     1
102
RTVSPost2010Prop38
140
0.0
102
RTVSPost2010PropOp38
 70
     1
102
RTVSPost2010Prop39
140
1.0
102
RTVSPost2010PropOp39
 70
     1
102
RTVSPost2010Prop40
 90
        0
102
RTVSPost2010PropOp40
 70
     1
102
RTVSPost2010Prop41ColorIndex
 90
       18
102
RTVSPost2010Prop41ColorRGB
 90
        0
102
RTVSPost2010PropOp41
 70
     1
102
RTVSPost2010Prop42
 90
       50
102
RTVSPost2010PropOp42
 70
     1
102
RTVSPost2010Prop43
 90
        3
102
RTVSPost2010PropOp43
 70
     1
102
RTVSPost2010Prop44ColorIndex
 90
        5
102
RTVSPost2010Prop44ColorRGB
 90
      255
102
RTVSPost2010PropOp44
 70
     1
102
RTVSPost2010Prop45
280
     0
102
RTVSPost2010PropOp45
 70
     1
102
RTVSPost2010Prop46
 90
       50
102
RTVSPost2010PropOp46
 70
     1
102
RTVSPost2010Prop47
 90
       50
102
RTVSPost2010PropOp47
 70
     1
102
RTVSPost2010Prop48
 90
       50
102
RTVSPost2010PropOp48
 70
     1
102
RTVSPost2010Prop49
280
     0
102
RTVSPost2010PropOp49
 70
     1
102
RTVSPost2010Prop50
 90
       50
102
RTVSPost2010PropOp50
 70
     1
102
RTVSPost2010Prop51ColorIndex
 90
      256
102
RTVSPost2010Prop51ColorRGB
 90
-16777216
102
RTVSPost2010PropOp51
 70
     0
102
RTVSPost2010Prop52
140
1.0
102
RTVSPost2010PropOp52
 70
     0
102
RTVSPost2010Prop53
 90
        2
102
RTVSPost2010PropOp53
 70
     1
102
RTVSPost2010Prop54
  1
strokes_ogs.tif
102
RTVSPost2010PropOp54
 70
     1
102
RTVSPost2010Prop55
280
     0
102
RTVSPost2010PropOp55
 70
     1
102
RTVSPost2010Prop56
140
1.0
102
RTVSPost2010PropOp56
 70
     1
102
RTVSPost2010Prop57
140
1.0
102
RTVSPost2010PropOp57
 70
     1
102
RTVSPropertyOp0
 70
     1
102
RTVSPropertyOp1
 70
     1
102
RTVSPropertyOp2
 70
     1
102
RTVSPropertyOp3
 70
     1
102
RTVSPropertyOp4
 70
     1
102
RTVSPropertyOp5
 70
     1
102
RTVSPropertyOp6
 70
     1
102
RTVSPropertyOp7
 70
     1
102
RTVSPropertyOp8
 70
     1
102
RTVSPropertyOp9
 70
     1
102
RTVSPropertyOp10
 70
     1
102
RTVSPropertyOp11
 70
     1
102
RTVSPropertyOp12
 70
     1
102
RTVSPropertyOp13
 70
     1
102
RTVSPropertyOp14
 70
     1
102
RTVSPropertyOp15
 70
     1
102
RTVSPropertyOp16
 70
     1
102
RTVSPropertyOp17
 70
     1
102
RTVSPropertyOp18
 70
     1
102
RTVSPropertyOp19
 70
     1
102
RTVSPropertyOp20
 70
     1
102
RTVSPropertyOp21
 70
     1
102
RTVSPropertyOp22
 70
     1
102
RTVSPropertyOp23
 70
     1
102
RTVSPropertyOp24
 70
     1
102
RTVSPropertyOp25
 70
     1
102
RTVSPropertyOp26
 70
     1
102
RTVSPropertyOp27
 70
     1
102
RTVSPropertyOp28
 70
     1
102
RTVSPropertyOp29
 70
     1
102
RTVSPropertyOp30
 70
     1
102
RTVSPropertyOp31
 70
     1
102
RTVSPropertyOp32
 70
     1
102
RTVSPropertyOp33
 70
     1
102
RTVSPropertyOp34
 70
     1
102
RTVSPropertyOp35
 70
     1
102
RTVSPropertyOp36
 70
     1
102
RTVSPropertyOp37
 70
     1
102
RTVSPropertyOp38
 70
     1
102
RTVSPropertyOp39
 70
     1
102
RTVSPropertyOp40
 70
     1
102
RTVSPropertyOp41
 70
     1
102
RTVSPropertyOp42
 70
     1
102
RTVSPropertyOp43
 70
     1
102
RTVSPropertyOp44
 70
     1
102
RTVSPropertyOp45
 70
     1
102
RTVSPropertyOp46
 70
     1
102
RTVSPropertyOp47
 70
     1
102
RTVSPropertyOp48
 70
     1
102
RTVSPropertyOp49
 70
     1
102
RTVSPropertyOp50
 70
     1
102
RTVSPropertyOp51
 70
     0
102
RTVSPropertyOp52
 70
     0
102
RTVSPropertyOp53
 70
     1
102
RTVSPropertyOp54
 70
     1
102
RTVSPropertyOp55
 70
     1
102
RTVSPropertyOp56
 70
     1
102
RTVSPropertyOp57
 70
     1
102
RTVSPropertyOp58
 70
     1
102
RTVSPropertyOp59
 70
     1
102
RTVSPropertyOp60
 70
     1
102
RTVSPropertyOp61
 70
     1
102
RTVSPropertyOp62
 70
     1
  0
XRECORD
  5
3F2
102
{ACAD_REACTORS
330
3F1
102
}
330
3F1
100
AcDbXrecord
280
     1
102
RTVSPost2010Prop28
280
     0
102
RTVSPost2010PropOp28
 70
     0
102
RTVSPost2010Prop29
280
     1
102
RTVSPost2010PropOp29
 70
     0
102
RTVSPost2010Prop30
280
     1
102
RTVSPost2010PropOp30
 70
     0
102
RTVSPost2010Prop31
280
     0
102
RTVSPost2010PropOp31
 70
     0
102
RTVSPost2010Prop32
280
     0
102
RTVSPost2010PropOp32
 70
     0
102
RTVSPost2010Prop33
280
     0
102
RTVSPost2010PropOp33
 70
     0
102
RTVSPost2010Prop34
280
     0
102
RTVSPost2010PropOp34
 70
     0
102
RTVSPost2010Prop35
280
     0
102
RTVSPost2010PropOp35
 70
     0
102
RTVSPost2010Prop36
280
     0
102
RTVSPost2010PropOp36
 70
     0
102
RTVSPost2010Prop37
 90
       50
102
RTVSPost2010PropOp37
 70
     0
102
RTVSPost2010Prop38
140
0.0
102
RTVSPost2010PropOp38
 70
     0
102
RTVSPost2010Prop39
140
1.0
102
RTVSPost2010PropOp39
 70
     0
102
RTVSPost2010Prop40
 90
        0
102
RTVSPost2010PropOp40
 70
     0
102
RTVSPost2010Prop41ColorIndex
 90
       18
102
RTVSPost2010Prop41ColorRGB
 90
        0
102
RTVSPost2010PropOp41
 70
     0
102
RTVSPost2010Prop42
 90
       50
102
RTVSPost2010PropOp42
 70
     0
102
RTVSPost2010Prop43
 90
        3
102
RTVSPost2010PropOp43
 70
     0
102
RTVSPost2010Prop44ColorIndex
 90
        5
102
RTVSPost2010Prop44ColorRGB
 90
      255
102
RTVSPost2010PropOp44
 70
     0
102
RTVSPost2010Prop45
280
     0
102
RTVSPost2010PropOp45
 70
     0
102
RTVSPost2010Prop46
 90
       50
102
RTVSPost2010PropOp46
 70
     0
102
RTVSPost2010Prop47
 90
       50
102
RTVSPost2010PropOp47
 70
     0
102
RTVSPost2010Prop48
 90
       50
102
RTVSPost2010PropOp48
 70
     0
102
RTVSPost2010Prop49
280
     0
102
RTVSPost2010PropOp49
 70
     0
102
RTVSPost2010Prop50
 90
       50
102
RTVSPost2010PropOp50
 70
     0
102
RTVSPost2010Prop51ColorIndex
 90
      256
102
RTVSPost2010Prop51ColorRGB
 90
-16777216
102
RTVSPost2010PropOp51
 70
     0
102
RTVSPost2010Prop52
140
1.0
102
RTVSPost2010PropOp52
 70
     0
102
RTVSPost2010Prop53
 90
        2
102
RTVSPost2010PropOp53
 70
     0
102
RTVSPost2010Prop54
  1
strokes_ogs.tif
102
RTVSPost2010PropOp54
 70
     0
102
RTVSPost2010Prop55
280
     0
102
RTVSPost2010PropOp55
 70
     0
102
RTVSPost2010Prop56
140
1.0
102
RTVSPost2010PropOp56
 70
     0
102
RTVSPost2010Prop57
140
1.0
102
RTVSPost2010PropOp57
 70
     0
102
RTVSPropertyOp0
 70
     0
102
RTVSPropertyOp1
 70
     0
102
RTVSPropertyOp2
 70
     0
102
RTVSPropertyOp3
 70
     0
102
RTVSPropertyOp4
 70
     0
102
RTVSPropertyOp5
 70
     0
102
RTVSPropertyOp6
 70
     0
102
RTVSPropertyOp7
 70
     0
102
RTVSPropertyOp8
 70
     0
102
RTVSPropertyOp9
 70
     0
102
RTVSPropertyOp10
 70
     0
102
RTVSPropertyOp11
 70
     0
102
RTVSPropertyOp12
 70
     0
102
RTVSPropertyOp13
 70
     0
102
RTVSPropertyOp14
 70
     2
102
RTVSPropertyOp15
 70
     0
102
RTVSPropertyOp16
 70
     0
102
RTVSPropertyOp17
 70
     0
102
RTVSPropertyOp18
 70
     0
102
RTVSPropertyOp19
 70
     0
102
RTVSPropertyOp20
 70
     0
102
RTVSPropertyOp21
 70
     0
102
RTVSPropertyOp22
 70
     0
102
RTVSPropertyOp23
 70
     0
102
RTVSPropertyOp24
 70
     0
102
RTVSPropertyOp25
 70
     0
102
RTVSPropertyOp26
 70
     0
102
RTVSPropertyOp27
 70
     0
102
RTVSPropertyOp28
 70
     0
102
RTVSPropertyOp29
 70
     0
102
RTVSPropertyOp30
 70
     0
102
RTVSPropertyOp31
 70
     0
102
RTVSPropertyOp32
 70
     0
102
RTVSPropertyOp33
 70
     0
102
RTVSPropertyOp34
 70
     0
102
RTVSPropertyOp35
 70
     0
102
RTVSPropertyOp36
 70
     0
102
RTVSPropertyOp37
 70
     0
102
RTVSPropertyOp38
 70
     0
102
RTVSPropertyOp39
 70
     0
102
RTVSPropertyOp40
 70
     0
102
RTVSPropertyOp41
 70
     0
102
RTVSPropertyOp42
 70
     0
102
RTVSPropertyOp43
 70
     0
102
RTVSPropertyOp44
 70
     0
102
RTVSPropertyOp45
 70
     0
102
RTVSPropertyOp46
 70
     0
102
RTVSPropertyOp47
 70
     0
102
RTVSPropertyOp48
 70
     0
102
RTVSPropertyOp49
 70
     0
102
RTVSPropertyOp50
 70
     0
102
RTVSPropertyOp51
 70
     0
102
RTVSPropertyOp52
 70
     0
102
RTVSPropertyOp53
 70
     0
102
RTVSPropertyOp54
 70
     0
102
RTVSPropertyOp55
 70
     0
102
RTVSPropertyOp56
 70
     0
102
RTVSPropertyOp57
 70
     0
102
RTVSPropertyOp58
 70
     0
102
RTVSPropertyOp59
 70
     0
102
RTVSPropertyOp60
 70
     0
102
RTVSPropertyOp61
 70
     0
102
RTVSPropertyOp62
 70
     0
  0
XRECORD
  5
3D8
102
{ACAD_REACTORS
330
3D7
102
}
330
3D7
100
AcDbXrecord
280
     1
102
RTVSPost2010Prop28
280
     0
102
RTVSPost2010PropOp28
 70
     1
102
RTVSPost2010Prop29
280
     1
102
RTVSPost2010PropOp29
 70
     1
102
RTVSPost2010Prop30
280
     1
102
RTVSPost2010PropOp30
 70
     1
102
RTVSPost2010Prop31
280
     0
102
RTVSPost2010PropOp31
 70
     1
102
RTVSPost2010Prop32
280
     0
102
RTVSPost2010PropOp32
 70
     1
102
RTVSPost2010Prop33
280
     0
102
RTVSPost2010PropOp33
 70
     1
102
RTVSPost2010Prop34
280
     0
102
RTVSPost2010PropOp34
 70
     1
102
RTVSPost2010Prop35
280
     0
102
RTVSPost2010PropOp35
 70
     1
102
RTVSPost2010Prop36
280
     0
102
RTVSPost2010PropOp36
 70
     1
102
RTVSPost2010Prop37
 90
       50
102
RTVSPost2010PropOp37
 70
     1
102
RTVSPost2010Prop38
140
0.0
102
RTVSPost2010PropOp38
 70
     1
102
RTVSPost2010Prop39
140
1.0
102
RTVSPost2010PropOp39
 70
     1
102
RTVSPost2010Prop40
 90
        0
102
RTVSPost2010PropOp40
 70
     1
102
RTVSPost2010Prop41ColorIndex
 90
       18
102
RTVSPost2010Prop41ColorRGB
 90
        0
102
RTVSPost2010PropOp41
 70
     1
102
RTVSPost2010Prop42
 90
       50
102
RTVSPost2010PropOp42
 70
     1
102
RTVSPost2010Prop43
 90
        3
102
RTVSPost2010PropOp43
 70
     1
102
RTVSPost2010Prop44ColorIndex
 90
        5
102
RTVSPost2010Prop44ColorRGB
 90
      255
102
RTVSPost2010PropOp44
 70
     1
102
RTVSPost2010Prop45
280
     0
102
RTVSPost2010PropOp45
 70
     1
102
RTVSPost2010Prop46
 90
       50
102
RTVSPost2010PropOp46
 70
     1
102
RTVSPost2010Prop47
 90
       50
102
RTVSPost2010PropOp47
 70
     1
102
RTVSPost2010Prop48
 90
       50
102
RTVSPost2010PropOp48
 70
     1
102
RTVSPost2010Prop49
280
     0
102
RTVSPost2010PropOp49
 70
     1
102
RTVSPost2010Prop50
 90
       50
102
RTVSPost2010PropOp50
 70
     1
102
RTVSPost2010Prop51ColorIndex
 90
      256
102
RTVSPost2010Prop51ColorRGB
 90
-16777216
102
RTVSPost2010PropOp51
 70
     0
102
RTVSPost2010Prop52
140
1.0
102
RTVSPost2010PropOp52
 70
     0
102
RTVSPost2010Prop53
 90
        2
102
RTVSPost2010PropOp53
 70
     1
102
RTVSPost2010Prop54
  1
strokes_ogs.tif
102
RTVSPost2010PropOp54
 70
     1
102
RTVSPost2010Prop55
280
     0
102
RTVSPost2010PropOp55
 70
     1
102
RTVSPost2010Prop56
140
1.0
102
RTVSPost2010PropOp56
 70
     1
102
RTVSPost2010Prop57
140
1.0
102
RTVSPost2010PropOp57
 70
     1
102
RTVSPropertyOp0
 70
     1
102
RTVSPropertyOp1
 70
     1
102
RTVSPropertyOp2
 70
     1
102
RTVSPropertyOp3
 70
     1
102
RTVSPropertyOp4
 70
     1
102
RTVSPropertyOp5
 70
     1
102
RTVSPropertyOp6
 70
     1
102
RTVSPropertyOp7
 70
     1
102
RTVSPropertyOp8
 70
     1
102
RTVSPropertyOp9
 70
     1
102
RTVSPropertyOp10
 70
     1
102
RTVSPropertyOp11
 70
     1
102
RTVSPropertyOp12
 70
     1
102
RTVSPropertyOp13
 70
     1
102
RTVSPropertyOp14
 70
     1
102
RTVSPropertyOp15
 70
     1
102
RTVSPropertyOp16
 70
     1
102
RTVSPropertyOp17
 70
     1
102
RTVSPropertyOp18
 70
     1
102
RTVSPropertyOp19
 70
     1
102
RTVSPropertyOp20
 70
     1
102
RTVSPropertyOp21
 70
     1
102
RTVSPropertyOp22
 70
     1
102
RTVSPropertyOp23
 70
     1
102
RTVSPropertyOp24
 70
     1
102
RTVSPropertyOp25
 70
     1
102
RTVSPropertyOp26
 70
     1
102
RTVSPropertyOp27
 70
     1
102
RTVSPropertyOp28
 70
     1
102
RTVSPropertyOp29
 70
     1
102
RTVSPropertyOp30
 70
     1
102
RTVSPropertyOp31
 70
     1
102
RTVSPropertyOp32
 70
     1
102
RTVSPropertyOp33
 70
     1
102
RTVSPropertyOp34
 70
     1
102
RTVSPropertyOp35
 70
     1
102
RTVSPropertyOp36
 70
     1
102
RTVSPropertyOp37
 70
     1
102
RTVSPropertyOp38
 70
     1
102
RTVSPropertyOp39
 70
     1
102
RTVSPropertyOp40
 70
     1
102
RTVSPropertyOp41
 70
     1
102
RTVSPropertyOp42
 70
     1
102
RTVSPropertyOp43
 70
     1
102
RTVSPropertyOp44
 70
     1
102
RTVSPropertyOp45
 70
     1
102
RTVSPropertyOp46
 70
     1
102
RTVSPropertyOp47
 70
     1
102
RTVSPropertyOp48
 70
     1
102
RTVSPropertyOp49
 70
     1
102
RTVSPropertyOp50
 70
     1
102
RTVSPropertyOp51
 70
     0
102
RTVSPropertyOp52
 70
     0
102
RTVSPropertyOp53
 70
     1
102
RTVSPropertyOp54
 70
     1
102
RTVSPropertyOp55
 70
     1
102
RTVSPropertyOp56
 70
     1
102
RTVSPropertyOp57
 70
     1
102
RTVSPropertyOp58
 70
     1
102
RTVSPropertyOp59
 70
     1
102
RTVSPropertyOp60
 70
     1
102
RTVSPropertyOp61
 70
     1
102
RTVSPropertyOp62
 70
     1
  0
XRECORD
  5
3EE
102
{ACAD_REACTORS
330
3ED
102
}
330
3ED
100
AcDbXrecord
280
     1
102
RTVSPost2010Prop28
280
     0
102
RTVSPost2010PropOp28
 70
     1
102
RTVSPost2010Prop29
280
     1
102
RTVSPost2010PropOp29
 70
     1
102
RTVSPost2010Prop30
280
     1
102
RTVSPost2010PropOp30
 70
     1
102
RTVSPost2010Prop31
280
     0
102
RTVSPost2010PropOp31
 70
     1
102
RTVSPost2010Prop32
280
     0
102
RTVSPost2010PropOp32
 70
     1
102
RTVSPost2010Prop33
280
     0
102
RTVSPost2010PropOp33
 70
     1
102
RTVSPost2010Prop34
280
     0
102
RTVSPost2010PropOp34
 70
     1
102
RTVSPost2010Prop35
280
     0
102
RTVSPost2010PropOp35
 70
     1
102
RTVSPost2010Prop36
280
     0
102
RTVSPost2010PropOp36
 70
     1
102
RTVSPost2010Prop37
 90
       50
102
RTVSPost2010PropOp37
 70
     1
102
RTVSPost2010Prop38
140
0.0
102
RTVSPost2010PropOp38
 70
     1
102
RTVSPost2010Prop39
140
1.0
102
RTVSPost2010PropOp39
 70
     1
102
RTVSPost2010Prop40
 90
        0
102
RTVSPost2010PropOp40
 70
     1
102
RTVSPost2010Prop41ColorIndex
 90
       18
102
RTVSPost2010Prop41ColorRGB
 90
        0
102
RTVSPost2010PropOp41
 70
     1
102
RTVSPost2010Prop42
 90
       50
102
RTVSPost2010PropOp42
 70
     1
102
RTVSPost2010Prop43
 90
        3
102
RTVSPost2010PropOp43
 70
     1
102
RTVSPost2010Prop44ColorIndex
 90
        5
102
RTVSPost2010Prop44ColorRGB
 90
      255
102
RTVSPost2010PropOp44
 70
     1
102
RTVSPost2010Prop45
280
     0
102
RTVSPost2010PropOp45
 70
     1
102
RTVSPost2010Prop46
 90
       50
102
RTVSPost2010PropOp46
 70
     1
102
RTVSPost2010Prop47
 90
       50
102
RTVSPost2010PropOp47
 70
     1
102
RTVSPost2010Prop48
 90
       50
102
RTVSPost2010PropOp48
 70
     1
102
RTVSPost2010Prop49
280
     0
102
RTVSPost2010PropOp49
 70
     1
102
RTVSPost2010Prop50
 90
       50
102
RTVSPost2010PropOp50
 70
     1
102
RTVSPost2010Prop51ColorIndex
 90
      256
102
RTVSPost2010Prop51ColorRGB
 90
-16777216
102
RTVSPost2010PropOp51
 70
     0
102
RTVSPost2010Prop52
140
1.0
102
RTVSPost2010PropOp52
 70
     0
102
RTVSPost2010Prop53
 90
        2
102
RTVSPost2010PropOp53
 70
     1
102
RTVSPost2010Prop54
  1
strokes_ogs.tif
102
RTVSPost2010PropOp54
 70
     1
102
RTVSPost2010Prop55
280
     0
102
RTVSPost2010PropOp55
 70
     1
102
RTVSPost2010Prop56
140
1.0
102
RTVSPost2010PropOp56
 70
     1
102
RTVSPost2010Prop57
140
1.0
102
RTVSPost2010PropOp57
 70
     1
102
RTVSPropertyOp0
 70
     1
102
RTVSPropertyOp1
 70
     1
102
RTVSPropertyOp2
 70
     1
102
RTVSPropertyOp3
 70
     1
102
RTVSPropertyOp4
 70
     1
102
RTVSPropertyOp5
 70
     1
102
RTVSPropertyOp6
 70
     1
102
RTVSPropertyOp7
 70
     1
102
RTVSPropertyOp8
 70
     1
102
RTVSPropertyOp9
 70
     1
102
RTVSPropertyOp10
 70
     1
102
RTVSPropertyOp11
 70
     1
102
RTVSPropertyOp12
 70
     1
102
RTVSPropertyOp13
 70
     1
102
RTVSPropertyOp14
 70
     1
102
RTVSPropertyOp15
 70
     1
102
RTVSPropertyOp16
 70
     1
102
RTVSPropertyOp17
 70
     1
102
RTVSPropertyOp18
 70
     1
102
RTVSPropertyOp19
 70
     1
102
RTVSPropertyOp20
 70
     1
102
RTVSPropertyOp21
 70
     1
102
RTVSPropertyOp22
 70
     1
102
RTVSPropertyOp23
 70
     1
102
RTVSPropertyOp24
 70
     1
102
RTVSPropertyOp25
 70
     1
102
RTVSPropertyOp26
 70
     1
102
RTVSPropertyOp27
 70
     1
102
RTVSPropertyOp28
 70
     1
102
RTVSPropertyOp29
 70
     1
102
RTVSPropertyOp30
 70
     1
102
RTVSPropertyOp31
 70
     1
102
RTVSPropertyOp32
 70
     1
102
RTVSPropertyOp33
 70
     1
102
RTVSPropertyOp34
 70
     1
102
RTVSPropertyOp35
 70
     1
102
RTVSPropertyOp36
 70
     1
102
RTVSPropertyOp37
 70
     1
102
RTVSPropertyOp38
 70
     1
102
RTVSPropertyOp39
 70
     1
102
RTVSPropertyOp40
 70
     1
102
RTVSPropertyOp41
 70
     1
102
RTVSPropertyOp42
 70
     1
102
RTVSPropertyOp43
 70
     1
102
RTVSPropertyOp44
 70
     1
102
RTVSPropertyOp45
 70
     1
102
RTVSPropertyOp46
 70
     1
102
RTVSPropertyOp47
 70
     1
102
RTVSPropertyOp48
 70
     1
102
RTVSPropertyOp49
 70
     1
102
RTVSPropertyOp50
 70
     1
102
RTVSPropertyOp51
 70
     0
102
RTVSPropertyOp52
 70
     0
102
RTVSPropertyOp53
 70
     1
102
RTVSPropertyOp54
 70
     1
102
RTVSPropertyOp55
 70
     1
102
RTVSPropertyOp56
 70
     1
102
RTVSPropertyOp57
 70
     1
102
RTVSPropertyOp58
 70
     1
102
RTVSPropertyOp59
 70
     1
102
RTVSPropertyOp60
 70
     1
102
RTVSPropertyOp61
 70
     1
102
RTVSPropertyOp62
 70
     1
  0
XRECORD
  5
3EC
102
{ACAD_REACTORS
330
3EB
102
}
330
3EB
100
AcDbXrecord
280
     1
102
RTVSPost2010Prop28
280
     0
102
RTVSPost2010PropOp28
 70
     1
102
RTVSPost2010Prop29
280
     1
102
RTVSPost2010PropOp29
 70
     1
102
RTVSPost2010Prop30
280
     1
102
RTVSPost2010PropOp30
 70
     1
102
RTVSPost2010Prop31
280
     0
102
RTVSPost2010PropOp31
 70
     1
102
RTVSPost2010Prop32
280
     0
102
RTVSPost2010PropOp32
 70
     1
102
RTVSPost2010Prop33
280
     0
102
RTVSPost2010PropOp33
 70
     1
102
RTVSPost2010Prop34
280
     0
102
RTVSPost2010PropOp34
 70
     1
102
RTVSPost2010Prop35
280
     0
102
RTVSPost2010PropOp35
 70
     1
102
RTVSPost2010Prop36
280
     0
102
RTVSPost2010PropOp36
 70
     1
102
RTVSPost2010Prop37
 90
       50
102
RTVSPost2010PropOp37
 70
     1
102
RTVSPost2010Prop38
140
0.0
102
RTVSPost2010PropOp38
 70
     1
102
RTVSPost2010Prop39
140
1.0
102
RTVSPost2010PropOp39
 70
     1
102
RTVSPost2010Prop40
 90
        0
102
RTVSPost2010PropOp40
 70
     1
102
RTVSPost2010Prop41ColorIndex
 90
       18
102
RTVSPost2010Prop41ColorRGB
 90
        0
102
RTVSPost2010PropOp41
 70
     1
102
RTVSPost2010Prop42
 90
       50
102
RTVSPost2010PropOp42
 70
     1
102
RTVSPost2010Prop43
 90
        3
102
RTVSPost2010PropOp43
 70
     1
102
RTVSPost2010Prop44ColorIndex
 90
        5
102
RTVSPost2010Prop44ColorRGB
 90
      255
102
RTVSPost2010PropOp44
 70
     1
102
RTVSPost2010Prop45
280
     0
102
RTVSPost2010PropOp45
 70
     1
102
RTVSPost2010Prop46
 90
       50
102
RTVSPost2010PropOp46
 70
     1
102
RTVSPost2010Prop47
 90
       50
102
RTVSPost2010PropOp47
 70
     1
102
RTVSPost2010Prop48
 90
       50
102
RTVSPost2010PropOp48
 70
     1
102
RTVSPost2010Prop49
280
     0
102
RTVSPost2010PropOp49
 70
     1
102
RTVSPost2010Prop50
 90
       50
102
RTVSPost2010PropOp50
 70
     1
102
RTVSPost2010Prop51ColorIndex
 90
      256
102
RTVSPost2010Prop51ColorRGB
 90
-16777216
102
RTVSPost2010PropOp51
 70
     0
102
RTVSPost2010Prop52
140
1.0
102
RTVSPost2010PropOp52
 70
     0
102
RTVSPost2010Prop53
 90
        2
102
RTVSPost2010PropOp53
 70
     1
102
RTVSPost2010Prop54
  1
strokes_ogs.tif
102
RTVSPost2010PropOp54
 70
     1
102
RTVSPost2010Prop55
280
     0
102
RTVSPost2010PropOp55
 70
     1
102
RTVSPost2010Prop56
140
1.0
102
RTVSPost2010PropOp56
 70
     1
102
RTVSPost2010Prop57
140
1.0
102
RTVSPost2010PropOp57
 70
     1
102
RTVSPropertyOp0
 70
     1
102
RTVSPropertyOp1
 70
     1
102
RTVSPropertyOp2
 70
     1
102
RTVSPropertyOp3
 70
     1
102
RTVSPropertyOp4
 70
     1
102
RTVSPropertyOp5
 70
     1
102
RTVSPropertyOp6
 70
     1
102
RTVSPropertyOp7
 70
     1
102
RTVSPropertyOp8
 70
     1
102
RTVSPropertyOp9
 70
     1
102
RTVSPropertyOp10
 70
     1
102
RTVSPropertyOp11
 70
     1
102
RTVSPropertyOp12
 70
     1
102
RTVSPropertyOp13
 70
     1
102
RTVSPropertyOp14
 70
     1
102
RTVSPropertyOp15
 70
     1
102
RTVSPropertyOp16
 70
     1
102
RTVSPropertyOp17
 70
     1
102
RTVSPropertyOp18
 70
     1
102
RTVSPropertyOp19
 70
     1
102
RTVSPropertyOp20
 70
     1
102
RTVSPropertyOp21
 70
     1
102
RTVSPropertyOp22
 70
     1
102
RTVSPropertyOp23
 70
     1
102
RTVSPropertyOp24
 70
     1
102
RTVSPropertyOp25
 70
     1
102
RTVSPropertyOp26
 70
     1
102
RTVSPropertyOp27
 70
     1
102
RTVSPropertyOp28
 70
     1
102
RTVSPropertyOp29
 70
     1
102
RTVSPropertyOp30
 70
     1
102
RTVSPropertyOp31
 70
     1
102
RTVSPropertyOp32
 70
     1
102
RTVSPropertyOp33
 70
     1
102
RTVSPropertyOp34
 70
     1
102
RTVSPropertyOp35
 70
     1
102
RTVSPropertyOp36
 70
     1
102
RTVSPropertyOp37
 70
     1
102
RTVSPropertyOp38
 70
     1
102
RTVSPropertyOp39
 70
     1
102
RTVSPropertyOp40
 70
     1
102
RTVSPropertyOp41
 70
     1
102
RTVSPropertyOp42
 70
     1
102
RTVSPropertyOp43
 70
     1
102
RTVSPropertyOp44
 70
     1
102
RTVSPropertyOp45
 70
     1
102
RTVSPropertyOp46
 70
     1
102
RTVSPropertyOp47
 70
     1
102
RTVSPropertyOp48
 70
     1
102
RTVSPropertyOp49
 70
     1
102
RTVSPropertyOp50
 70
     1
102
RTVSPropertyOp51
 70
     0
102
RTVSPropertyOp52
 70
     0
102
RTVSPropertyOp53
 70
     1
102
RTVSPropertyOp54
 70
     1
102
RTVSPropertyOp55
 70
     1
102
RTVSPropertyOp56
 70
     1
102
RTVSPropertyOp57
 70
     1
102
RTVSPropertyOp58
 70
     1
102
RTVSPropertyOp59
 70
     1
102
RTVSPropertyOp60
 70
     1
102
RTVSPropertyOp61
 70
     1
102
RTVSPropertyOp62
 70
     1
  0
XRECORD
  5
3E6
102
{ACAD_REACTORS
330
3E5
102
}
330
3E5
100
AcDbXrecord
280
     1
102
RTVSPost2010Prop28
280
     0
102
RTVSPost2010PropOp28
 70
     1
102
RTVSPost2010Prop29
280
     1
102
RTVSPost2010PropOp29
 70
     1
102
RTVSPost2010Prop30
280
     1
102
RTVSPost2010PropOp30
 70
     1
102
RTVSPost2010Prop31
280
     0
102
RTVSPost2010PropOp31
 70
     1
102
RTVSPost2010Prop32
280
     0
102
RTVSPost2010PropOp32
 70
     1
102
RTVSPost2010Prop33
280
     0
102
RTVSPost2010PropOp33
 70
     1
102
RTVSPost2010Prop34
280
     0
102
RTVSPost2010PropOp34
 70
     1
102
RTVSPost2010Prop35
280
     0
102
RTVSPost2010PropOp35
 70
     1
102
RTVSPost2010Prop36
280
     0
102
RTVSPost2010PropOp36
 70
     1
102
RTVSPost2010Prop37
 90
       50
102
RTVSPost2010PropOp37
 70
     1
102
RTVSPost2010Prop38
140
0.0
102
RTVSPost2010PropOp38
 70
     1
102
RTVSPost2010Prop39
140
1.0
102
RTVSPost2010PropOp39
 70
     1
102
RTVSPost2010Prop40
 90
        0
102
RTVSPost2010PropOp40
 70
     1
102
RTVSPost2010Prop41ColorIndex
 90
       18
102
RTVSPost2010Prop41ColorRGB
 90
        0
102
RTVSPost2010PropOp41
 70
     1
102
RTVSPost2010Prop42
 90
       50
102
RTVSPost2010PropOp42
 70
     1
102
RTVSPost2010Prop43
 90
        3
102
RTVSPost2010PropOp43
 70
     1
102
RTVSPost2010Prop44ColorIndex
 90
        5
102
RTVSPost2010Prop44ColorRGB
 90
      255
102
RTVSPost2010PropOp44
 70
     1
102
RTVSPost2010Prop45
280
     0
102
RTVSPost2010PropOp45
 70
     1
102
RTVSPost2010Prop46
 90
       50
102
RTVSPost2010PropOp46
 70
     1
102
RTVSPost2010Prop47
 90
       50
102
RTVSPost2010PropOp47
 70
     1
102
RTVSPost2010Prop48
 90
       50
102
RTVSPost2010PropOp48
 70
     1
102
RTVSPost2010Prop49
280
     0
102
RTVSPost2010PropOp49
 70
     1
102
RTVSPost2010Prop50
 90
       50
102
RTVSPost2010PropOp50
 70
     1
102
RTVSPost2010Prop51ColorIndex
 90
      256
102
RTVSPost2010Prop51ColorRGB
 90
-16777216
102
RTVSPost2010PropOp51
 70
     0
102
RTVSPost2010Prop52
140
1.0
102
RTVSPost2010PropOp52
 70
     0
102
RTVSPost2010Prop53
 90
        2
102
RTVSPost2010PropOp53
 70
     1
102
RTVSPost2010Prop54
  1
strokes_ogs.tif
102
RTVSPost2010PropOp54
 70
     1
102
RTVSPost2010Prop55
280
     0
102
RTVSPost2010PropOp55
 70
     1
102
RTVSPost2010Prop56
140
1.0
102
RTVSPost2010PropOp56
 70
     1
102
RTVSPost2010Prop57
140
1.0
102
RTVSPost2010PropOp57
 70
     1
102
RTVSPropertyOp0
 70
     1
102
RTVSPropertyOp1
 70
     1
102
RTVSPropertyOp2
 70
     1
102
RTVSPropertyOp3
 70
     1
102
RTVSPropertyOp4
 70
     1
102
RTVSPropertyOp5
 70
     1
102
RTVSPropertyOp6
 70
     1
102
RTVSPropertyOp7
 70
     1
102
RTVSPropertyOp8
 70
     1
102
RTVSPropertyOp9
 70
     1
102
RTVSPropertyOp10
 70
     1
102
RTVSPropertyOp11
 70
     1
102
RTVSPropertyOp12
 70
     1
102
RTVSPropertyOp13
 70
     1
102
RTVSPropertyOp14
 70
     1
102
RTVSPropertyOp15
 70
     1
102
RTVSPropertyOp16
 70
     1
102
RTVSPropertyOp17
 70
     1
102
RTVSPropertyOp18
 70
     1
102
RTVSPropertyOp19
 70
     1
102
RTVSPropertyOp20
 70
     1
102
RTVSPropertyOp21
 70
     1
102
RTVSPropertyOp22
 70
     1
102
RTVSPropertyOp23
 70
     1
102
RTVSPropertyOp24
 70
     1
102
RTVSPropertyOp25
 70
     1
102
RTVSPropertyOp26
 70
     1
102
RTVSPropertyOp27
 70
     1
102
RTVSPropertyOp28
 70
     1
102
RTVSPropertyOp29
 70
     1
102
RTVSPropertyOp30
 70
     1
102
RTVSPropertyOp31
 70
     1
102
RTVSPropertyOp32
 70
     1
102
RTVSPropertyOp33
 70
     1
102
RTVSPropertyOp34
 70
     1
102
RTVSPropertyOp35
 70
     1
102
RTVSPropertyOp36
 70
     1
102
RTVSPropertyOp37
 70
     1
102
RTVSPropertyOp38
 70
     1
102
RTVSPropertyOp39
 70
     1
102
RTVSPropertyOp40
 70
     1
102
RTVSPropertyOp41
 70
     1
102
RTVSPropertyOp42
 70
     1
102
RTVSPropertyOp43
 70
     1
102
RTVSPropertyOp44
 70
     1
102
RTVSPropertyOp45
 70
     1
102
RTVSPropertyOp46
 70
     1
102
RTVSPropertyOp47
 70
     1
102
RTVSPropertyOp48
 70
     1
102
RTVSPropertyOp49
 70
     1
102
RTVSPropertyOp50
 70
     1
102
RTVSPropertyOp51
 70
     0
102
RTVSPropertyOp52
 70
     0
102
RTVSPropertyOp53
 70
     1
102
RTVSPropertyOp54
 70
     1
102
RTVSPropertyOp55
 70
     1
102
RTVSPropertyOp56
 70
     1
102
RTVSPropertyOp57
 70
     1
102
RTVSPropertyOp58
 70
     1
102
RTVSPropertyOp59
 70
     1
102
RTVSPropertyOp60
 70
     1
102
RTVSPropertyOp61
 70
     1
102
RTVSPropertyOp62
 70
     1
  0
XRECORD
  5
3E8
102
{ACAD_REACTORS
330
3E7
102
}
330
3E7
100
AcDbXrecord
280
     1
102
RTVSPost2010Prop28
280
     0
102
RTVSPost2010PropOp28
 70
     1
102
RTVSPost2010Prop29
280
     1
102
RTVSPost2010PropOp29
 70
     1
102
RTVSPost2010Prop30
280
     1
102
RTVSPost2010PropOp30
 70
     1
102
RTVSPost2010Prop31
280
     0
102
RTVSPost2010PropOp31
 70
     1
102
RTVSPost2010Prop32
280
     0
102
RTVSPost2010PropOp32
 70
     1
102
RTVSPost2010Prop33
280
     0
102
RTVSPost2010PropOp33
 70
     1
102
RTVSPost2010Prop34
280
     0
102
RTVSPost2010PropOp34
 70
     1
102
RTVSPost2010Prop35
280
     0
102
RTVSPost2010PropOp35
 70
     1
102
RTVSPost2010Prop36
280
     0
102
RTVSPost2010PropOp36
 70
     1
102
RTVSPost2010Prop37
 90
       50
102
RTVSPost2010PropOp37
 70
     1
102
RTVSPost2010Prop38
140
0.0
102
RTVSPost2010PropOp38
 70
     1
102
RTVSPost2010Prop39
140
1.0
102
RTVSPost2010PropOp39
 70
     1
102
RTVSPost2010Prop40
 90
        0
102
RTVSPost2010PropOp40
 70
     1
102
RTVSPost2010Prop41ColorIndex
 90
       18
102
RTVSPost2010Prop41ColorRGB
 90
        0
102
RTVSPost2010PropOp41
 70
     1
102
RTVSPost2010Prop42
 90
       50
102
RTVSPost2010PropOp42
 70
     1
102
RTVSPost2010Prop43
 90
        3
102
RTVSPost2010PropOp43
 70
     1
102
RTVSPost2010Prop44ColorIndex
 90
        5
102
RTVSPost2010Prop44ColorRGB
 90
      255
102
RTVSPost2010PropOp44
 70
     1
102
RTVSPost2010Prop45
280
     0
102
RTVSPost2010PropOp45
 70
     1
102
RTVSPost2010Prop46
 90
       50
102
RTVSPost2010PropOp46
 70
     1
102
RTVSPost2010Prop47
 90
       50
102
RTVSPost2010PropOp47
 70
     1
102
RTVSPost2010Prop48
 90
       50
102
RTVSPost2010PropOp48
 70
     1
102
RTVSPost2010Prop49
280
     0
102
RTVSPost2010PropOp49
 70
     1
102
RTVSPost2010Prop50
 90
       50
102
RTVSPost2010PropOp50
 70
     1
102
RTVSPost2010Prop51ColorIndex
 90
      256
102
RTVSPost2010Prop51ColorRGB
 90
-16777216
102
RTVSPost2010PropOp51
 70
     0
102
RTVSPost2010Prop52
140
1.0
102
RTVSPost2010PropOp52
 70
     0
102
RTVSPost2010Prop53
 90
        2
102
RTVSPost2010PropOp53
 70
     1
102
RTVSPost2010Prop54
  1
strokes_ogs.tif
102
RTVSPost2010PropOp54
 70
     1
102
RTVSPost2010Prop55
280
     0
102
RTVSPost2010PropOp55
 70
     1
102
RTVSPost2010Prop56
140
1.0
102
RTVSPost2010PropOp56
 70
     1
102
RTVSPost2010Prop57
140
1.0
102
RTVSPost2010PropOp57
 70
     1
102
RTVSPropertyOp0
 70
     1
102
RTVSPropertyOp1
 70
     1
102
RTVSPropertyOp2
 70
     1
102
RTVSPropertyOp3
 70
     1
102
RTVSPropertyOp4
 70
     1
102
RTVSPropertyOp5
 70
     1
102
RTVSPropertyOp6
 70
     1
102
RTVSPropertyOp7
 70
     1
102
RTVSPropertyOp8
 70
     1
102
RTVSPropertyOp9
 70
     1
102
RTVSPropertyOp10
 70
     1
102
RTVSPropertyOp11
 70
     1
102
RTVSPropertyOp12
 70
     1
102
RTVSPropertyOp13
 70
     1
102
RTVSPropertyOp14
 70
     1
102
RTVSPropertyOp15
 70
     1
102
RTVSPropertyOp16
 70
     1
102
RTVSPropertyOp17
 70
     1
102
RTVSPropertyOp18
 70
     1
102
RTVSPropertyOp19
 70
     1
102
RTVSPropertyOp20
 70
     1
102
RTVSPropertyOp21
 70
     1
102
RTVSPropertyOp22
 70
     1
102
RTVSPropertyOp23
 70
     1
102
RTVSPropertyOp24
 70
     1
102
RTVSPropertyOp25
 70
     1
102
RTVSPropertyOp26
 70
     1
102
RTVSPropertyOp27
 70
     1
102
RTVSPropertyOp28
 70
     1
102
RTVSPropertyOp29
 70
     1
102
RTVSPropertyOp30
 70
     1
102
RTVSPropertyOp31
 70
     1
102
RTVSPropertyOp32
 70
     1
102
RTVSPropertyOp33
 70
     1
102
RTVSPropertyOp34
 70
     1
102
RTVSPropertyOp35
 70
     1
102
RTVSPropertyOp36
 70
     1
102
RTVSPropertyOp37
 70
     1
102
RTVSPropertyOp38
 70
     1
102
RTVSPropertyOp39
 70
     1
102
RTVSPropertyOp40
 70
     1
102
RTVSPropertyOp41
 70
     1
102
RTVSPropertyOp42
 70
     1
102
RTVSPropertyOp43
 70
     1
102
RTVSPropertyOp44
 70
     1
102
RTVSPropertyOp45
 70
     1
102
RTVSPropertyOp46
 70
     1
102
RTVSPropertyOp47
 70
     1
102
RTVSPropertyOp48
 70
     1
102
RTVSPropertyOp49
 70
     1
102
RTVSPropertyOp50
 70
     1
102
RTVSPropertyOp51
 70
     0
102
RTVSPropertyOp52
 70
     0
102
RTVSPropertyOp53
 70
     1
102
RTVSPropertyOp54
 70
     1
102
RTVSPropertyOp55
 70
     1
102
RTVSPropertyOp56
 70
     1
102
RTVSPropertyOp57
 70
     1
102
RTVSPropertyOp58
 70
     1
102
RTVSPropertyOp59
 70
     1
102
RTVSPropertyOp60
 70
     1
102
RTVSPropertyOp61
 70
     1
102
RTVSPropertyOp62
 70
     1
  0
XRECORD
  5
3DE
102
{ACAD_REACTORS
330
3DD
102
}
330
3DD
100
AcDbXrecord
280
     1
102
RTVSPost2010Prop28
280
     0
102
RTVSPost2010PropOp28
 70
     1
102
RTVSPost2010Prop29
280
     1
102
RTVSPost2010PropOp29
 70
     1
102
RTVSPost2010Prop30
280
     1
102
RTVSPost2010PropOp30
 70
     1
102
RTVSPost2010Prop31
280
     0
102
RTVSPost2010PropOp31
 70
     1
102
RTVSPost2010Prop32
280
     0
102
RTVSPost2010PropOp32
 70
     1
102
RTVSPost2010Prop33
280
     0
102
RTVSPost2010PropOp33
 70
     1
102
RTVSPost2010Prop34
280
     0
102
RTVSPost2010PropOp34
 70
     1
102
RTVSPost2010Prop35
280
     0
102
RTVSPost2010PropOp35
 70
     1
102
RTVSPost2010Prop36
280
     0
102
RTVSPost2010PropOp36
 70
     1
102
RTVSPost2010Prop37
 90
       50
102
RTVSPost2010PropOp37
 70
     1
102
RTVSPost2010Prop38
140
0.0
102
RTVSPost2010PropOp38
 70
     1
102
RTVSPost2010Prop39
140
1.0
102
RTVSPost2010PropOp39
 70
     1
102
RTVSPost2010Prop40
 90
        0
102
RTVSPost2010PropOp40
 70
     1
102
RTVSPost2010Prop41ColorIndex
 90
       18
102
RTVSPost2010Prop41ColorRGB
 90
        0
102
RTVSPost2010PropOp41
 70
     1
102
RTVSPost2010Prop42
 90
       50
102
RTVSPost2010PropOp42
 70
     1
102
RTVSPost2010Prop43
 90
        3
102
RTVSPost2010PropOp43
 70
     1
102
RTVSPost2010Prop44ColorIndex
 90
        5
102
RTVSPost2010Prop44ColorRGB
 90
      255
102
RTVSPost2010PropOp44
 70
     1
102
RTVSPost2010Prop45
280
     0
102
RTVSPost2010PropOp45
 70
     1
102
RTVSPost2010Prop46
 90
       50
102
RTVSPost2010PropOp46
 70
     1
102
RTVSPost2010Prop47
 90
       50
102
RTVSPost2010PropOp47
 70
     1
102
RTVSPost2010Prop48
 90
       50
102
RTVSPost2010PropOp48
 70
     1
102
RTVSPost2010Prop49
280
     0
102
RTVSPost2010PropOp49
 70
     1
102
RTVSPost2010Prop50
 90
       50
102
RTVSPost2010PropOp50
 70
     1
102
RTVSPost2010Prop51ColorIndex
 90
      256
102
RTVSPost2010Prop51ColorRGB
 90
-16777216
102
RTVSPost2010PropOp51
 70
     0
102
RTVSPost2010Prop52
140
1.0
102
RTVSPost2010PropOp52
 70
     0
102
RTVSPost2010Prop53
 90
        2
102
RTVSPost2010PropOp53
 70
     1
102
RTVSPost2010Prop54
  1
strokes_ogs.tif
102
RTVSPost2010PropOp54
 70
     1
102
RTVSPost2010Prop55
280
     0
102
RTVSPost2010PropOp55
 70
     1
102
RTVSPost2010Prop56
140
1.0
102
RTVSPost2010PropOp56
 70
     1
102
RTVSPost2010Prop57
140
1.0
102
RTVSPost2010PropOp57
 70
     1
102
RTVSPropertyOp0
 70
     1
102
RTVSPropertyOp1
 70
     1
102
RTVSPropertyOp2
 70
     1
102
RTVSPropertyOp3
 70
     1
102
RTVSPropertyOp4
 70
     1
102
RTVSPropertyOp5
 70
     1
102
RTVSPropertyOp6
 70
     1
102
RTVSPropertyOp7
 70
     1
102
RTVSPropertyOp8
 70
     1
102
RTVSPropertyOp9
 70
     1
102
RTVSPropertyOp10
 70
     1
102
RTVSPropertyOp11
 70
     1
102
RTVSPropertyOp12
 70
     1
102
RTVSPropertyOp13
 70
     1
102
RTVSPropertyOp14
 70
     1
102
RTVSPropertyOp15
 70
     1
102
RTVSPropertyOp16
 70
     1
102
RTVSPropertyOp17
 70
     1
102
RTVSPropertyOp18
 70
     1
102
RTVSPropertyOp19
 70
     1
102
RTVSPropertyOp20
 70
     1
102
RTVSPropertyOp21
 70
     1
102
RTVSPropertyOp22
 70
     1
102
RTVSPropertyOp23
 70
     1
102
RTVSPropertyOp24
 70
     1
102
RTVSPropertyOp25
 70
     1
102
RTVSPropertyOp26
 70
     1
102
RTVSPropertyOp27
 70
     1
102
RTVSPropertyOp28
 70
     1
102
RTVSPropertyOp29
 70
     1
102
RTVSPropertyOp30
 70
     1
102
RTVSPropertyOp31
 70
     1
102
RTVSPropertyOp32
 70
     1
102
RTVSPropertyOp33
 70
     1
102
RTVSPropertyOp34
 70
     1
102
RTVSPropertyOp35
 70
     1
102
RTVSPropertyOp36
 70
     1
102
RTVSPropertyOp37
 70
     1
102
RTVSPropertyOp38
 70
     1
102
RTVSPropertyOp39
 70
     1
102
RTVSPropertyOp40
 70
     1
102
RTVSPropertyOp41
 70
     1
102
RTVSPropertyOp42
 70
     1
102
RTVSPropertyOp43
 70
     1
102
RTVSPropertyOp44
 70
     1
102
RTVSPropertyOp45
 70
     1
102
RTVSPropertyOp46
 70
     1
102
RTVSPropertyOp47
 70
     1
102
RTVSPropertyOp48
 70
     1
102
RTVSPropertyOp49
 70
     1
102
RTVSPropertyOp50
 70
     1
102
RTVSPropertyOp51
 70
     0
102
RTVSPropertyOp52
 70
     0
102
RTVSPropertyOp53
 70
     1
102
RTVSPropertyOp54
 70
     1
102
RTVSPropertyOp55
 70
     1
102
RTVSPropertyOp56
 70
     1
102
RTVSPropertyOp57
 70
     1
102
RTVSPropertyOp58
 70
     1
102
RTVSPropertyOp59
 70
     1
102
RTVSPropertyOp60
 70
     1
102
RTVSPropertyOp61
 70
     1
102
RTVSPropertyOp62
 70
     1
  0
XRECORD
  5
3D2
102
{ACAD_REACTORS
330
3D1
102
}
330
3D1
100
AcDbXrecord
280
     1
102
RTVSPost2010Prop28
280
     0
102
RTVSPost2010PropOp28
 70
     1
102
RTVSPost2010Prop29
280
     1
102
RTVSPost2010PropOp29
 70
     1
102
RTVSPost2010Prop30
280
     1
102
RTVSPost2010PropOp30
 70
     1
102
RTVSPost2010Prop31
280
     0
102
RTVSPost2010PropOp31
 70
     1
102
RTVSPost2010Prop32
280
     0
102
RTVSPost2010PropOp32
 70
     1
102
RTVSPost2010Prop33
280
     0
102
RTVSPost2010PropOp33
 70
     1
102
RTVSPost2010Prop34
280
     0
102
RTVSPost2010PropOp34
 70
     1
102
RTVSPost2010Prop35
280
     0
102
RTVSPost2010PropOp35
 70
     1
102
RTVSPost2010Prop36
280
     0
102
RTVSPost2010PropOp36
 70
     1
102
RTVSPost2010Prop37
 90
       50
102
RTVSPost2010PropOp37
 70
     1
102
RTVSPost2010Prop38
140
0.0
102
RTVSPost2010PropOp38
 70
     1
102
RTVSPost2010Prop39
140
1.0
102
RTVSPost2010PropOp39
 70
     1
102
RTVSPost2010Prop40
 90
        0
102
RTVSPost2010PropOp40
 70
     1
102
RTVSPost2010Prop41ColorIndex
 90
       18
102
RTVSPost2010Prop41ColorRGB
 90
        0
102
RTVSPost2010PropOp41
 70
     1
102
RTVSPost2010Prop42
 90
       50
102
RTVSPost2010PropOp42
 70
     1
102
RTVSPost2010Prop43
 90
        3
102
RTVSPost2010PropOp43
 70
     1
102
RTVSPost2010Prop44ColorIndex
 90
        5
102
RTVSPost2010Prop44ColorRGB
 90
      255
102
RTVSPost2010PropOp44
 70
     1
102
RTVSPost2010Prop45
280
     0
102
RTVSPost2010PropOp45
 70
     1
102
RTVSPost2010Prop46
 90
       50
102
RTVSPost2010PropOp46
 70
     1
102
RTVSPost2010Prop47
 90
       50
102
RTVSPost2010PropOp47
 70
     1
102
RTVSPost2010Prop48
 90
       50
102
RTVSPost2010PropOp48
 70
     1
102
RTVSPost2010Prop49
280
     0
102
RTVSPost2010PropOp49
 70
     1
102
RTVSPost2010Prop50
 90
       50
102
RTVSPost2010PropOp50
 70
     1
102
RTVSPost2010Prop51ColorIndex
 90
      256
102
RTVSPost2010Prop51ColorRGB
 90
-16777216
102
RTVSPost2010PropOp51
 70
     0
102
RTVSPost2010Prop52
140
1.0
102
RTVSPost2010PropOp52
 70
     0
102
RTVSPost2010Prop53
 90
        2
102
RTVSPost2010PropOp53
 70
     1
102
RTVSPost2010Prop54
  1
strokes_ogs.tif
102
RTVSPost2010PropOp54
 70
     1
102
RTVSPost2010Prop55
280
     0
102
RTVSPost2010PropOp55
 70
     1
102
RTVSPost2010Prop56
140
1.0
102
RTVSPost2010PropOp56
 70
     1
102
RTVSPost2010Prop57
140
1.0
102
RTVSPost2010PropOp57
 70
     1
102
RTVSPropertyOp0
 70
     1
102
RTVSPropertyOp1
 70
     1
102
RTVSPropertyOp2
 70
     1
102
RTVSPropertyOp3
 70
     1
102
RTVSPropertyOp4
 70
     1
102
RTVSPropertyOp5
 70
     1
102
RTVSPropertyOp6
 70
     1
102
RTVSPropertyOp7
 70
     1
102
RTVSPropertyOp8
 70
     1
102
RTVSPropertyOp9
 70
     1
102
RTVSPropertyOp10
 70
     1
102
RTVSPropertyOp11
 70
     1
102
RTVSPropertyOp12
 70
     1
102
RTVSPropertyOp13
 70
     1
102
RTVSPropertyOp14
 70
     1
102
RTVSPropertyOp15
 70
     1
102
RTVSPropertyOp16
 70
     1
102
RTVSPropertyOp17
 70
     1
102
RTVSPropertyOp18
 70
     1
102
RTVSPropertyOp19
 70
     1
102
RTVSPropertyOp20
 70
     1
102
RTVSPropertyOp21
 70
     1
102
RTVSPropertyOp22
 70
     1
102
RTVSPropertyOp23
 70
     1
102
RTVSPropertyOp24
 70
     1
102
RTVSPropertyOp25
 70
     1
102
RTVSPropertyOp26
 70
     1
102
RTVSPropertyOp27
 70
     1
102
RTVSPropertyOp28
 70
     1
102
RTVSPropertyOp29
 70
     1
102
RTVSPropertyOp30
 70
     1
102
RTVSPropertyOp31
 70
     1
102
RTVSPropertyOp32
 70
     1
102
RTVSPropertyOp33
 70
     1
102
RTVSPropertyOp34
 70
     1
102
RTVSPropertyOp35
 70
     1
102
RTVSPropertyOp36
 70
     1
102
RTVSPropertyOp37
 70
     1
102
RTVSPropertyOp38
 70
     1
102
RTVSPropertyOp39
 70
     1
102
RTVSPropertyOp40
 70
     1
102
RTVSPropertyOp41
 70
     1
102
RTVSPropertyOp42
 70
     1
102
RTVSPropertyOp43
 70
     1
102
RTVSPropertyOp44
 70
     1
102
RTVSPropertyOp45
 70
     1
102
RTVSPropertyOp46
 70
     1
102
RTVSPropertyOp47
 70
     1
102
RTVSPropertyOp48
 70
     1
102
RTVSPropertyOp49
 70
     1
102
RTVSPropertyOp50
 70
     1
102
RTVSPropertyOp51
 70
     0
102
RTVSPropertyOp52
 70
     0
102
RTVSPropertyOp53
 70
     1
102
RTVSPropertyOp54
 70
     1
102
RTVSPropertyOp55
 70
     1
102
RTVSPropertyOp56
 70
     1
102
RTVSPropertyOp57
 70
     1
102
RTVSPropertyOp58
 70
     1
102
RTVSPropertyOp59
 70
     1
102
RTVSPropertyOp60
 70
     1
102
RTVSPropertyOp61
 70
     1
102
RTVSPropertyOp62
 70
     1
  0
XRECORD
  5
3EA
102
{ACAD_REACTORS
330
3E9
102
}
330
3E9
100
AcDbXrecord
280
     1
102
RTVSPost2010Prop28
280
     0
102
RTVSPost2010PropOp28
 70
     1
102
RTVSPost2010Prop29
280
     1
102
RTVSPost2010PropOp29
 70
     1
102
RTVSPost2010Prop30
280
     1
102
RTVSPost2010PropOp30
 70
     1
102
RTVSPost2010Prop31
280
     0
102
RTVSPost2010PropOp31
 70
     1
102
RTVSPost2010Prop32
280
     0
102
RTVSPost2010PropOp32
 70
     1
102
RTVSPost2010Prop33
280
     0
102
RTVSPost2010PropOp33
 70
     1
102
RTVSPost2010Prop34
280
     0
102
RTVSPost2010PropOp34
 70
     1
102
RTVSPost2010Prop35
280
     0
102
RTVSPost2010PropOp35
 70
     1
102
RTVSPost2010Prop36
280
     0
102
RTVSPost2010PropOp36
 70
     1
102
RTVSPost2010Prop37
 90
       50
102
RTVSPost2010PropOp37
 70
     1
102
RTVSPost2010Prop38
140
0.0
102
RTVSPost2010PropOp38
 70
     1
102
RTVSPost2010Prop39
140
1.0
102
RTVSPost2010PropOp39
 70
     1
102
RTVSPost2010Prop40
 90
        0
102
RTVSPost2010PropOp40
 70
     1
102
RTVSPost2010Prop41ColorIndex
 90
       18
102
RTVSPost2010Prop41ColorRGB
 90
        0
102
RTVSPost2010PropOp41
 70
     1
102
RTVSPost2010Prop42
 90
       50
102
RTVSPost2010PropOp42
 70
     1
102
RTVSPost2010Prop43
 90
        3
102
RTVSPost2010PropOp43
 70
     1
102
RTVSPost2010Prop44ColorIndex
 90
        5
102
RTVSPost2010Prop44ColorRGB
 90
      255
102
RTVSPost2010PropOp44
 70
     1
102
RTVSPost2010Prop45
280
     0
102
RTVSPost2010PropOp45
 70
     1
102
RTVSPost2010Prop46
 90
       50
102
RTVSPost2010PropOp46
 70
     1
102
RTVSPost2010Prop47
 90
       50
102
RTVSPost2010PropOp47
 70
     1
102
RTVSPost2010Prop48
 90
       50
102
RTVSPost2010PropOp48
 70
     1
102
RTVSPost2010Prop49
280
     0
102
RTVSPost2010PropOp49
 70
     1
102
RTVSPost2010Prop50
 90
       50
102
RTVSPost2010PropOp50
 70
     1
102
RTVSPost2010Prop51ColorIndex
 90
      256
102
RTVSPost2010Prop51ColorRGB
 90
-16777216
102
RTVSPost2010PropOp51
 70
     0
102
RTVSPost2010Prop52
140
1.0
102
RTVSPost2010PropOp52
 70
     0
102
RTVSPost2010Prop53
 90
        2
102
RTVSPost2010PropOp53
 70
     1
102
RTVSPost2010Prop54
  1
strokes_ogs.tif
102
RTVSPost2010PropOp54
 70
     1
102
RTVSPost2010Prop55
280
     0
102
RTVSPost2010PropOp55
 70
     1
102
RTVSPost2010Prop56
140
1.0
102
RTVSPost2010PropOp56
 70
     1
102
RTVSPost2010Prop57
140
1.0
102
RTVSPost2010PropOp57
 70
     1
102
RTVSPropertyOp0
 70
     1
102
RTVSPropertyOp1
 70
     1
102
RTVSPropertyOp2
 70
     1
102
RTVSPropertyOp3
 70
     1
102
RTVSPropertyOp4
 70
     1
102
RTVSPropertyOp5
 70
     1
102
RTVSPropertyOp6
 70
     1
102
RTVSPropertyOp7
 70
     1
102
RTVSPropertyOp8
 70
     1
102
RTVSPropertyOp9
 70
     1
102
RTVSPropertyOp10
 70
     1
102
RTVSPropertyOp11
 70
     1
102
RTVSPropertyOp12
 70
     1
102
RTVSPropertyOp13
 70
     1
102
RTVSPropertyOp14
 70
     1
102
RTVSPropertyOp15
 70
     1
102
RTVSPropertyOp16
 70
     1
102
RTVSPropertyOp17
 70
     1
102
RTVSPropertyOp18
 70
     1
102
RTVSPropertyOp19
 70
     1
102
RTVSPropertyOp20
 70
     1
102
RTVSPropertyOp21
 70
     1
102
RTVSPropertyOp22
 70
     1
102
RTVSPropertyOp23
 70
     1
102
RTVSPropertyOp24
 70
     1
102
RTVSPropertyOp25
 70
     1
102
RTVSPropertyOp26
 70
     1
102
RTVSPropertyOp27
 70
     1
102
RTVSPropertyOp28
 70
     1
102
RTVSPropertyOp29
 70
     1
102
RTVSPropertyOp30
 70
     1
102
RTVSPropertyOp31
 70
     1
102
RTVSPropertyOp32
 70
     1
102
RTVSPropertyOp33
 70
     1
102
RTVSPropertyOp34
 70
     1
102
RTVSPropertyOp35
 70
     1
102
RTVSPropertyOp36
 70
     1
102
RTVSPropertyOp37
 70
     1
102
RTVSPropertyOp38
 70
     1
102
RTVSPropertyOp39
 70
     1
102
RTVSPropertyOp40
 70
     1
102
RTVSPropertyOp41
 70
     1
102
RTVSPropertyOp42
 70
     1
102
RTVSPropertyOp43
 70
     1
102
RTVSPropertyOp44
 70
     1
102
RTVSPropertyOp45
 70
     1
102
RTVSPropertyOp46
 70
     1
102
RTVSPropertyOp47
 70
     1
102
RTVSPropertyOp48
 70
     1
102
RTVSPropertyOp49
 70
     1
102
RTVSPropertyOp50
 70
     1
102
RTVSPropertyOp51
 70
     0
102
RTVSPropertyOp52
 70
     0
102
RTVSPropertyOp53
 70
     1
102
RTVSPropertyOp54
 70
     1
102
RTVSPropertyOp55
 70
     1
102
RTVSPropertyOp56
 70
     1
102
RTVSPropertyOp57
 70
     1
102
RTVSPropertyOp58
 70
     1
102
RTVSPropertyOp59
 70
     1
102
RTVSPropertyOp60
 70
     1
102
RTVSPropertyOp61
 70
     1
102
RTVSPropertyOp62
 70
     1
  0
ENDSEC
  0
EOF
